Loading

คอร์ดเพลง อากาศ

บอดี้สแลม (Bodyslam)

อัพโหลดคลิปเพลงนี้ที่คุณ ร้อง/เล่น ด้วยตัวคุณเอง ได้แล้ววันนี้
ระหว่างการทดสอบระบบหากพบข้อผิดพลาด กรุณาแจ้งที่นี่
                                         อัลบั้ม : Bodyslam

C Am G F
คำว่ารัก คำที่ยิ่งใหญ่ ถูกสั่งสอน ให้เชื่อมาอย่างนั้น
C Am G F
ทำเพื่อรัก ทำซะยิ่งใหญ่ แต่กลับเห็นแค่เธอ ไปจากฉัน

Am Em F/C
ทุกๆสิ่งที่คิดทั้งหมดชีวิต ฝากเอาไว้
Am Em F/G
ทุกๆอย่างที่ฝันมีเพียงแค่ฉัน ไม่เหลือใคร

C E Am
* ( อยู่ไหน รัก ) ไอ้คำที่ว่าดี ที่เคยซึ้งทุกทีที่บอกฉัน
F G C E Am
ฉันเพิ่งรู้ว่ารัก ตัวตนมันไม่มี ที่ฉันทำดีก็เท่านั้น
F G C
มันก็แค่ ( อากาศ ) ( ความรัก )

F C Am G F
คำว่ารัก ฟังแล้วเข้าใจ ทำให้เห็นอะไร ที่เปลี่ยนผัน
F Em Am Cmaj7 F
ไม่ว่าเธอ ฉันหรือใครๆ ก็ต้องเป็นอากาศ เข้าสักวัน

Am Em F/C
จะไม่คิดพร่ำเพ้อโทษเธอ เมื่อคนอยากจะไป
Am Em F/G
จะไม่ขวางทางเธอ แค่เพียงอยากให้รู้ว่าเสียใจ

( ซ้ำ * )

C
** ไม่มีอะไร จะทำให้คนเราแน่นอน
Em
ไม่มีอะไร จะทำให้คนเราไม่เสียใจ
Am
ฉันเพิ่งรู้ เธอทำให้ฉันเพิ่งได้รู้
F G C
ว่าไม่มีใครที่เข้ามา และจะไม่พ้นไป ( มันก็แค่อากาศ )

( ซ้ำ ** )

Instru : Am/Em/F/G

( ซ้ำ * , * , ** , ** , ** , ** )


ส่งเพลงนี้ให้เพื่อน
วันที่โพสต์ : 21 ธ.ค.2546,09:02น.
จำนวนผู้ชม : 451146 คน / แสดงความคิดเห็น : 145 ครั้ง
โพสต์โดย


จาก: Maiza
Guest
เพลงแนะนำ
เพลงฮิต
เลือกแสดงเฉพาะ :

  • เดียร์ มือกีตาร์วงPhisical Sound
    Guest
  • 16 ก.ค.2547,14:14น.
    ท่อนSolo
    
    1--------------------------------------------------------------------------------------------------
    2-----------------14--13----------------14--13----------------------------------------15---
    3---8--9--10---------------8--9--10-------------10-9-10-10-9-8----11-12-13--------
    4--------------------------------------------------------------------------------------------------
    5--------------------------------------------------------------------------------------------------
    6---------------------------------------------------------------------------------------------------
    น่าจะใช่นะผมเล่นเพลงนี้มากเป็นปีแล้วคงใช่เเหละ
    ((อัพเดทคอร์ดกีต้าร์))
  • เดียร์ มือกีตาร์วงPhisical Sound
    Guest
  • 16 ก.ค.2547,14:14น.
    ท่อนSolo
    1--------------------------------------------------------------------------------------------------
    2-----------------14--13----------------14--13----------------------------------------15---
    3---8--9--10---------------8--9--10-------------10-9-10-10-9-8----11-12-13--------
    4--------------------------------------------------------------------------------------------------
    5--------------------------------------------------------------------------------------------------
    6---------------------------------------------------------------------------------------------------
    น่าจะใช่นะผมเล่นเพลงนี้มากเป็นปีแล้วคงใช่เเหละ
    ((อัพเดทคอร์ดกีต้าร์))
  • POM - HW -
    Guest
  • 6 ก.ย.2547,21:25น.
    1--------------------------------------------------------------------------------------------------
    2--9--9------9h12--12--9--9--9----9h14--14-------------16--14----------------------
    3---------11-------------------------11---------------13--13-------------16--13-----------
    4--------------------------------------------------------------------------------------------------
    5--------------------------------------------------------------------------------------------------
    6--------------------------------------------------------------------------------------------------

    1-----------------------------------------------12้h15h13-------------------------------------
    2---------------16--14--12--14---------------------------------------------------------------
    3----13--13----------------------- 13--13----------------------------------------------------
    4--------------------------------------------------------------------------------------------------
    5--------------------------------------------------------------------------------------------------
    6--------------------------------------------------------------------------------------------------

    ลองเอาไปเล่นกันนะ
    ((อัพเดทคอร์ดกีต้าร์))
  • POM - HW -
    Guest
  • 6 ก.ย.2547,21:28น.
    1--------------------------------------------------------------------------------------------------
    2--9--9------9h12--12--9--9--9----9h14--14-------------16--14----------------------
    3---------11-------------------------11---------------13--13-------------16--13-----------
    4--------------------------------------------------------------------------------------------------
    5--------------------------------------------------------------------------------------------------
    6--------------------------------------------------------------------------------------------------

    1-----------------------------------------------12้h15h13-------------------------------------
    2---------------16--14--12--14---------------------------------------------------------------
    3----13--13----------------------- 13--13----------------------------------------------------
    4--------------------------------------------------------------------------------------------------
    5--------------------------------------------------------------------------------------------------
    6--------------------------------------------------------------------------------------------------

    ลองเอาไปเล่นกันนะ
    ((อัพเดทคอร์ดกีต้าร์))
  • 30 ก.ค.2548,14:59น.
    ช่วง ทุก ๆ สิ่งที่คิดทั้งหมดชีวิตฝากเอาไว้
    1)--------------------------------------------------
    2)-/12-13-12-13-----/12-13-12------------
    3)----------------------------------------12-------

    Solo
    1)-x-x---x-x-x---x-x-x-----------------------------------------------------------------------------
    2)-x-x---x-x-x---x-x-x---/9-9-9^(10)-9-7-9---17-----/9-9-9^(10)-9-7-9-----19----
    3)---------------------------------------------------------------------------------------------------
    4)---------------------------------------------------------------------------------------------------
    5)----------------------------------------------------------------------------------------------------
    6)----------------------------------------------------------------------------------------------------

    1)---------------------------------------------------------------------------------------------
    2)----------------17-15---------------------------17-15-------------------18^-18^-18
    3)-/14-14-14----------16--------/14-14-14---------16-17-16----------------------
    4)-----------------------------15----------------------------------------17------------------
    5)-----------------------------------------------------------------------------------------------

    6)-----------------------------------------------------------------------------------------------

    หมายเหตุ / สไลด์
    ^ ดันสาย
    x ดีดให้สายบอด
  • โอ สุพัน
    Guest
  • 4 ก.ย.2548,20:19น.
    ของจิงแบบนี้

    Solo ของ โจ้ ผมพิมเอง แต่อันนั้นมันเพี้ยน เสียงมันสูงไป เอาอันใหม่มา น่าจะตงแล้วนะ ลองเล่นดู

    1)-x-x---x-x-x---x-x-x-----------------------------------------------------------------------------
    2)-x-x---x-x-x---x-x-x--------------------------13----------------------------15----------------
    3)-------------------------/9-9-9^(10)-9-7-9-------/9-9-9^(10)-9-7-9----------------------
    4)---------------------------------------------------------------------------------------------------
    5)----------------------------------------------------------------------------------------------------
    6)----------------------------------------------------------------------------------------------------

    1)---------------------------------------------------------------------------------------------
    2)----------------17-15---------------------------17-15-------------------18^--18
    3)-/14-14-14----------16--------/14-14-14---------16-17-16----------------------
    4)-----------------------------15----------------------------------------17------------------
    5)-----------------------------------------------------------------------------------------------
    6)-----------------------------------------------------------------------------------------------

    น่าจะตงสุดแล้วนะ อันบนที่พิมไว้ เสียงมันสูงไปอะ อันเนี้ยของจิง
  • Skip club
    Guest
  • 13 ต.ค.2548,16:02น.
    solo
    1--x-x--x-x-x--x-x-x---------------------------------------------------------------------------------------
    2--x-x--x-x-x--x-x-x--------------9---9^s--7--9/17-17-17--9---9^s---7--9/19--19---19----
    3--x-x--x-x-x--x-x-x---------------------------------------------------------------------------------------
    4--------------------------------------------------------------------------------------------------------------
    5--------------------------------------------------------------------------------------------------------------
    6----------------------------/12-----------------------------------------------------------------------------

    1--------------------------------------------------------------------------------------------------------------
    2--------------------17--15---------------------------------17--15---------------------------------------
    3--/14--14--14------------16---------14--14--14----------------16/17--16h17p16------18^- 4----------------------------------15~-----------------------------------------------------------17--------
    5--------------------------------------------------------------------------------------------------------------
    6--------------------------------------------------------------------------------------------------------------

    ^s = ดีดแล้วดันขึ้นและกลับมาที่เดิมโดยดีดแค่ทีเดียว
    ~ = สั่นสาย
    ^ = ดีดแล้วดันสายค้างไว้
  • Skip club
    Guest
  • 13 ต.ค.2548,16:04น.
    ใหม่
    solo
    1--x-x--x-x-x--x-x-x---------------------------------------------------------------------------------------
    2--x-x--x-x-x--x-x-x--------------9---9^s--7--9/17-17-17--9---9^s---7--9/19--19---19----
    3--x-x--x-x-x--x-x-x---------------------------------------------------------------------------------------
    4--------------------------------------------------------------------------------------------------------------
    5--------------------------------------------------------------------------------------------------------------
    6----------------------------/12-----------------------------------------------------------------------------

    1--------------------------------------------------------------------------------------------------------------
    2--------------------17--15---------------------------------17--15---------------------------------------
    3--/14--14--14------------16---------14--14--14----------------16/17--16h17p16------18^-
    4----------------------------------15~-----------------------------------------------------------17--------
    5--------------------------------------------------------------------------------------------------------------
    6--------------------------------------------------------------------------------------------------------------

    ^s = ดีดแล้วดันขึ้นและกลับมาที่เดิมโดยดีดแค่ทีเดียว
    ~ = สั่นสาย
    ^ = ดีดแล้วดันสายค้างไว้


  • 20 พ.ย.2548,14:28น.
    solo
    1--x-x--x-x-x--x-x-x---------------------------------------------------------------------------------------
    2--x-x--x-x-x--x-x-x--------------9---9^s--7--9/17-17-17--9---9^s---7--9/19--19---19----
    3--x-x--x-x-x--x-x-x---------------------------------------------------------------------------------------
    4--------------------------------------------------------------------------------------------------------------
    5--------------------------------------------------------------------------------------------------------------
    6----------------------------/12-----------------------------------------------------------------------------

    1--------------------------------------------------------------------------------------------------------------
    2--------------------17--15---------------------------------17--15---------------------------------------
    3--/14--14--14------------16---------14--14--14----------------16/17--16h17p16------18^-
    4----------------------------------15~-----------------------------------------------------------17--------
    5--------------------------------------------------------------------------------------------------------------
    6--------------------------------------------------------------------------------------------------------------
  • แจ๊ก สามเสน
    Guest
  • 24 พ.ย.2548,16:49น.
    ตอนนี้บอดี้ไม่ใช่บอดี้

    อย่าเรียก"พี่ตูน บอดี้แสลม" "พี่ชัช บอดี้แสลม" "พี่ยอด บอดี้แสลม" "พี่ปิ๊ด บอดี้แสลม"

    วันนี้เหลือเพียง"พี่เภา บอดี้แสลม"

    " E B C#m A E
    ยังไงก็ยังติดพื้น ยังยืนยังเดินแบบฉัน ใครที่เค้ามีปีกพร้อมจะบินคงให้เค้าบินไป
    B C#m A B E
    เกินมาเป็นคนเดินช้า ก็ไม่ขอทำตามอย่างใคร ฝันไม่ใหญ่เกินตัว "

    มีใครรู้มั่ง เพลงซ้ำไปซ้ำมา ที่จิงเนื้อเป็นแบบนี้
    C Am
    "เจ็บปวดที่เภาคนนี้ยังเป็นคนเดิมที่มันเป็นเหมือนเดิม
    Dm G
    ยังจะร้องแนว..บอร์ดี้เท่านั้น
    C Am
    ต้องเจ็บกับหวังลมๆว่าเราจะกลับมาร่วมวง
    Dm G C
    แต่ก็รู้.. ไม่มีแล้ว.. บอร์ดี้ แสลม...................."



    อยากเห็นบอดี้แสลมในแบบบอดี้แสลมอีกครั้ง
  • แจ๊ก สามเสน
    Guest
  • 25 พ.ย.2548,19:33น.
    ตอนนี้บอดี้ไม่ใช่บอดี้

    อย่าเรียก"พี่ตูน บอดี้แสลม" "พี่ชัช บอดี้แสลม" "พี่ยอด บอดี้แสลม" "พี่ปิ๊ด บอดี้แสลม"

    วันนี้เหลือเพียง"พี่เภา บอดี้แสลม"

    " E B C#m A E
    ยังไงก็ยังติดพื้น ยังยืนยังเดินแบบฉัน ใครที่เค้ามีปีกพร้อมจะบินคงให้เค้าบินไป
    B C#m A B E
    เกินมาเป็นคนเดินช้า ก็ไม่ขอทำตามอย่างใคร ฝันไม่ใหญ่เกินตัว "

    มีใครรู้มั่ง เพลงซ้ำไปซ้ำมา ที่จิงเนื้อเป็นแบบนี้
    C C
    "เจ็บปวดที่เภาคนนี้ยังเป็นคนเดิมที่มันเป็นเหมือนเดิม
    Am Am
    ยังจะร้องแนว..บอร์ดี้เท่านั้น
    Dm Dm
    ต้องเจ็บกับหวังลมๆว่าเราจะกลับมาร่วมวง
    G G
    แต่ก็รู้.. ไม่มีแล้ว.. บอร์ดี้ แสลม...................."



    อยากเห็นบอดี้แสลมในแบบบอดี้แสลมอีกครั้ง
  • ikung
    Guest
  • 25 เม.ย.2549,13:15น.
    เนื้อเพลงมันหายตอนท้ายอะครับ เพิ่มให้  

    C E A F G
    อยู่ที่ไหนความรัก โว..เย... ฉันก็ไม่เคย

    C E A
    เธออยู่ที่ไหนความรัก......

    F G C
    มันก็แค่อากาศ

    มันจาไปทับกับ ** สองอันหลังอะครับ
  • SakanouE
    Guest
  • 11 ม.ค.2550,20:48น.

    1-------------------8-8-----l------10-10 -l---------13-12--------l-----------13-12----13-12---16-
    2-----------------------------l---------------l-----13---------13----l-------13--------13---------13---
    3----/9-9-7-9---------9-9l-7-9----------l13-----------------13-l-13--------------------------------

    มั่วดูฟังแล้วดีขึ้นนิดๆ
  • ต่อๆ
    Guest
  • 11 ม.ค.2550,20:57น.

    1)-----------------8-8------------10-10--------11-10-----------------12-10-------------------15-15
    2)---------------------------------------------9---------10-----10-10----------12h13-12--------------
    3)--/9-9-7-9----------9-9-7-9------10-----------------10---------------------------------13---------
  • กรีซ(มือกีต้า)ไนท์(ร้องนำ)พี(มือเบส)พีท(มือกลอง)
    Guest
  • 18 ก.พ.2550,20:32น.
  • Zhady
    Guest
  • 17 เม.ย.2550,09:58น.
    อากาศ 
    Artist : บอดี้สแลม (Bodyslam)


    อัลบั้ม : Bodyslam

    Fsus2Cadd9 Amadd9Gadd9 Fsus2
    คำว่ารัก คำที่ยิ่งใหญ่ ถูกสั่งสอน ให้เชื่อมาอย่างนั้น
    Fsus2 Cadd9 Amadd9Gadd9Fsus2
    ทำเพื่อรัก ทำซะยิ่งใหญ่ แต่กลับเห็นแค่เธอ ไปจากฉัน

    Am Em F/C
    ทุกๆสิ่งที่คิดทั้งหมดชีวิต ฝากเอาไว้
    Am Em F/G
    ทุกๆอย่างที่ฝันมีเพียงแค่ฉัน ไม่เหลือใคร

    C Em Am
    * ( อยู่ไหน รัก ) ไอ้คำที่ว่าดี ที่เคยซึ้งทุกทีที่บอกฉัน
    F G C Em Am
    ฉันเพิ่งรู้ว่ารัก ตัวตนมันไม่มี ที่ฉันทำดีก็เท่านั้น
    F G C
    มันก็แค่ ( อากาศ ) ( ความรัก )

    F C Am G F
    คำว่ารัก ฟังแล้วเข้าใจ ทำให้เห็นอะไร ที่เปลี่ยนผัน
    F Em Am Cmaj7 F
    ไม่ว่าเธอ ฉันหรือใครๆ ก็ต้องเป็นอากาศ เข้าสักวัน

    Am Em F/C
    จะไม่คิดพร่ำเพ้อโทษเธอ เมื่อคนอยากจะไป
    Am Em F/G
    จะไม่ขวางทางเธอ แค่เพียงอยากให้รู้ว่าเสียใจ

    ( ซ้ำ * )

    C
    ** ไม่มีอะไร จะทำให้คนเราแน่นอน
    Em
    ไม่มีอะไร จะทำให้คนเราไม่เสียใจ
    Am
    ฉันเพิ่งรู้ เธอทำให้ฉันเพิ่งได้รู้
    F G C
    ว่าไม่มีใครที่เข้ามา และจะไม่พ้นไป ( มันก็แค่อากาศ )

    ( ซ้ำ ** )

    Instru : Am/Em/F/G

    ( ซ้ำ * , * , ** , ** , ** , ** )

    Note* add9 = ใส่นิ้วก้อยลงไปที่เส้น 1 เฟต 3
  • G_M
    Guest
  • 30 ก.ย.2550,23:51น.
      C                              Am      G             F
    คำว่ารัก คำที่ยิ่งใหญ่ ถูกสั่งสอน ให้เชื่อมาอย่างนั้น
    C Am G F
    ทำเพื่อรัก ทำซะยิ่งใหญ่ แต่กลับเห็นแค่เธอ ไปจากฉัน

    Am Em F/C
    ทุกๆสิ่งที่คิดทั้งหมดชีวิต ฝากเอาไว้
    Am Em F/G
    ทุกๆอย่างที่ฝันมีเพียงแค่ฉัน ไม่เหลือใคร

    C E Am
    * ( อยู่ไหน รัก ) ไอ้คำที่ว่าดี ที่เคยซึ้งทุกทีที่บอกฉัน
    F G C E Am
    ฉันเพิ่งรู้ว่ารัก ตัวตนมันไม่มี ที่ฉันทำดีก็เท่านั้น
    F G C
    มันก็แค่ ( อากาศ ) ( ความรัก )

    F C Am G F
    คำว่ารัก ฟังแล้วเข้าใจ ทำให้เห็นอะไร ที่เปลี่ยนผัน
    F Em Am Cmaj7 F
    ไม่ว่าเธอ ฉันหรือใครๆ ก็ต้องเป็นอากาศ เข้าสักวัน

    Am Em F/C
    จะไม่คิดพร่ำเพ้อโทษเธอ เมื่อคนอยากจะไป
    Am Em F/G
    จะไม่ขวางทางเธอ แค่เพียงอยากให้รู้ว่าเสียใจ

    ( ซ้ำ * )

    C
    ** ไม่มีอะไร จะทำให้คนเราแน่นอน
    Em
    ไม่มีอะไร จะทำให้คนเราไม่เสียใจ
    Am
    ฉันเพิ่งรู้ เธอทำให้ฉันเพิ่งได้รู้
    F G C
    ว่าไม่มีใครที่เข้ามา และจะไม่พ้นไป ( มันก็แค่อากาศ )
  • G_M
    Guest
  • 30 ก.ย.2550,23:52น.
      C                              Am      G             F
    คำว่ารัก คำที่ยิ่งใหญ่ ถูกสั่งสอน ให้เชื่อมาอย่างนั้น
    C Am G F
    ทำเพื่อรัก ทำซะยิ่งใหญ่ แต่กลับเห็นแค่เธอ ไปจากฉัน

    Am Em F/C
    ทุกๆสิ่งที่คิดทั้งหมดชีวิต ฝากเอาไว้
    Am Em F/G
    ทุกๆอย่างที่ฝันมีเพียงแค่ฉัน ไม่เหลือใคร

    C E Am
    * ( อยู่ไหน รัก ) ไอ้คำที่ว่าดี ที่เคยซึ้งทุกทีที่บอกฉัน
    F G C E Am
    ฉันเพิ่งรู้ว่ารัก ตัวตนมันไม่มี ที่ฉันทำดีก็เท่านั้น
    F G C
    มันก็แค่ ( อากาศ ) ( ความรัก )

    F C Am G F
    คำว่ารัก ฟังแล้วเข้าใจ ทำให้เห็นอะไร ที่เปลี่ยนผัน
    F Em Am Cmaj7 F
    ไม่ว่าเธอ ฉันหรือใครๆ ก็ต้องเป็นอากาศ เข้าสักวัน

    Am Em F/C
    จะไม่คิดพร่ำเพ้อโทษเธอ เมื่อคนอยากจะไป
    Am Em F/G
    จะไม่ขวางทางเธอ แค่เพียงอยากให้รู้ว่าเสียใจ

    ( ซ้ำ * )

    C
    ** ไม่มีอะไร จะทำให้คนเราแน่นอน
    Em
    ไม่มีอะไร จะทำให้คนเราไม่เสียใจ
    Am
    ฉันเพิ่งรู้ เธอทำให้ฉันเพิ่งได้รู้
    F G C
    ว่าไม่มีใครที่เข้ามา และจะไม่พ้นไป ( มันก็แค่อากาศ )
  • osama
    Guest
  • 14 ต.ค.2550,19:55น.
    อากาศ 
    Artist : บอดี้สแลม (Bodyslam)


    อัลบั้ม : Bodyslam

    C Am G F
    คำว่ารัก คำที่ยิ่งใหญ่ ถูกสั่งสอน ให้เชื่อมาอย่างนั้น
    C Am G F
    ทำเพื่อรัก ทำซะยิ่งใหญ่ แต่กลับเห็นแค่เธอ ไปจากฉัน

    Am Em F/C
    ทุกๆสิ่งที่คิดทั้งหมดชีวิต ฝากเอาไว้
    Am Em F/G
    ทุกๆอย่างที่ฝันมีเพียงแค่ฉัน ไม่เหลือใคร

    C E Am
    * ( อยู่ไหน รัก ) ไอ้คำที่ว่าดี ที่เคยซึ้งทุกทีที่บอกฉัน
    F G C E Am
    ฉันเพิ่งรู้ว่ารัก ตัวตนมันไม่มี ที่ฉันทำดีก็เท่านั้น
    F G C
    มันก็แค่ ( อากาศ ) ( ความรัก )

    F C Am G F
    คำว่ารัก ฟังแล้วเข้าใจ ทำให้เห็นอะไร ที่เปลี่ยนผัน
    F Em Am Cmaj7 F
    ไม่ว่าเธอ ฉันหรือใครๆ ก็ต้องเป็นอากาศ เข้าสักวัน

    Am Em F/C
    จะไม่คิดพร่ำเพ้อโทษเธอ เมื่อคนอยากจะไป
    Am Em F/G
    จะไม่ขวางทางเธอ แค่เพียงอยากให้รู้ว่าเสียใจ

    ( ซ้ำ * )

    C
    ** ไม่มีอะไร จะทำให้คนเราแน่นอน
    Em
    ไม่มีอะไร จะทำให้คนเราไม่เสียใจ
    Am
    ฉันเพิ่งรู้ เธอทำให้ฉันเพิ่งได้รู้
    F G C
    ว่าไม่มีใครที่เข้ามา และจะไม่พ้นไป ( มันก็แค่อากาศ )

    ( ซ้ำ ** )

    Instru : Am/Em/F/G

    ( ซ้ำ * , * , ** , ** , ** , ** )



  • Desolate*
    Guest
  • 22 ม.ค.2551,20:09น.


    Solo
    ชัวๆ

    ไม่เหมือนให้เตะ


    1/------------------8-8-8--------------------10-10-10-----------------12-10-------------------
    2/------------------------------------------------------------------10-10----------12---------------
    3/---9-9---7-9---------------9-9---7-9--------------------10----------------------10-----------
    4/------------------------------------------------------------------------------------------------------
    5/------------------------------------------------------------------------------------------------------
    6/------------------------------------------------------------------------------------------------------

    1/-------------12-10---------------------15-15------------------------------------------------
    2/----10-10----------12/13-12---------------------------------------------------------------
    3/------------------------------------12----------------------------------------------------------
    4/---------------------------------------------------------------------------------------------------
    5/-------------------------------------------------------------------------------------------------
    6/-------------------------------------------------------------------------------------------------

1

ขอเชิญร่วมแสดงความคิดเห็นครับ

คลิกที่รูป เพื่อแทรกรูปลงในข้อความ
  • Member :
    username
    password
  • Not a member :
    name
    email