Loading

คอร์ดเพลง อ้างว้าง

แคลช (Clash)

อัพโหลดคลิปเพลงนี้ที่คุณ ร้อง/เล่น ด้วยตัวคุณเอง ได้แล้ววันนี้
ระหว่างการทดสอบระบบหากพบข้อผิดพลาด กรุณาแจ้งที่นี่
อ้างว้าง [ Clash ]

เธอคือคนที่ฟ้าจงใจกำหนดไว้
ขีดชีวิตให้เธอกับฉันรักกันเเล้วพรากจาก
ใจกำลังเรียนรู้พึ่งเริ่มจะเรียนรัก สิ่งที่ฝันก็พังสลายภายในพริบตา

* ขาดเธอเหมือนใจจะขาดหาย
เจ็บปวดใจ ไม่อยากทนรับรู้ความจริง
เธอจากไปเเล้ว

** ชีวิตที่เหลืออ้างว้างทรมาน ยังไม่อาจรู้จะอยู่ได้อย่างไร
ก็เพราะชีวิตฉันนั้นมีเพียงเธอ ทั้งหมดลมหายใจ

วันเวลาที่เหลือใช้ไปกับความเหงา
ก็ไม่รู้จะทนปวดร้าวได้นานซักเท่าไร
ไกลกันคนล่ะฟ้าตัวเธอได้ยินไหม
ใจมันเพ้อครวญครางว่ารักได้ยินไหมเธอ


( ซ้ำ * , ** )


( ซ้ำ * , ** )
ดาวน์โหลด Full Song
กด *424243017306584
กด *424243017306584
ดาวน์โหลด Truetone
กด *424218017306584
กด *424218017306584
กด *424218017306584
ดาวน์โหลด Poly
กด *424214017306584
กด *424214017306584
กด *424214017306584
ดาวน์โหลด Mono
กด *424211017306584
กด *424211017306584
กด *424211017306584
* อัตราค่าบริการดาวน์โหลด Fullsong, Truetone, Poly, Mono : 35 บาท/เพลง
ส่งเพลงนี้ให้เพื่อน
วันที่โพสต์ : 14 ธ.ค.2547,23:05น.
จำนวนผู้ชม : 200276 คน / แสดงความคิดเห็น : 100 ครั้ง
โพสต์โดย


จาก: NongNick
Guest
เพลงแนะนำ
เพลงฮิต
เลือกแสดงเฉพาะ :

  • ไก่
    Guest
  • 25 ธ.ค.2547,00:43น.
                                               อ้างว้าง
    
    Clash
    Intro:Em D/C (2Times)
    Em D C Em D C
    เธอคือคนที่ฟ้าจงใจกำหนดไว้ ขีดชีวิตให้เธอกับฉันรักกันแล้วพรากจาก
    Em D C Em D C
    ใจกำลังเรียนรู้เพิ่งเริ่มจะเรียนรัก สิ่งที่ฝันก็พลันสลายพายในพริบตา
    Am D Am D Em E
    *ขาดเธอ เหมือนใจจะขาดหาย เจ็บปวดใจ ไม่อยากทนรับรู้ความจริงเธอจากไปแล้ว
    Am D G F#m Em
    **ชีวิตที่เหลืออ้างว้างทรมาน และไม่อาจรู้จะอยู่ได้อย่างไร
    Am B Em
    ก็เพราะชีวิตฉันนั้นมีเพียงเธอ เป็นดังลมหายใจ
    Em D C Em D C
    วันเวลาที่เหลือใช้ไปกับความเหงา ก็ไม่รู้จะทนปวดร้าวได้นานสักเท่าไร่
    Em D C Em D C
    ไกลเกินคนละฟ้า ตัวเธอได้ยินไหม ใจมันเพ้อครวญครางเวิ้งว้างได้ยินไหมเธอ
    (ซ้ำ*/**)
    Solo:Em D/C (4Times)
    (ซ้ำ*/**/**)

  • ไก่
    Guest
  • 25 ธ.ค.2547,00:43น.
                                               อ้างว้าง
    Clash
    Intro:Em D/C (2Times)
    Em D C Em D C
    เธอคือคนที่ฟ้าจงใจกำหนดไว้ ขีดชีวิตให้เธอกับฉันรักกันแล้วพรากจาก
    Em D C Em D C
    ใจกำลังเรียนรู้เพิ่งเริ่มจะเรียนรัก สิ่งที่ฝันก็พลันสลายพายในพริบตา
    Am D Am D Em E
    *ขาดเธอ เหมือนใจจะขาดหาย เจ็บปวดใจ ไม่อยากทนรับรู้ความจริงเธอจากไปแล้ว
    Am D G F#m Em
    **ชีวิตที่เหลืออ้างว้างทรมาน และไม่อาจรู้จะอยู่ได้อย่างไร
    Am B Em
    ก็เพราะชีวิตฉันนั้นมีเพียงเธอ เป็นดังลมหายใจ
    Em D C Em D C
    วันเวลาที่เหลือใช้ไปกับความเหงา ก็ไม่รู้จะทนปวดร้าวได้นานสักเท่าไร่
    Em D C Em D C
    ไกลเกินคนละฟ้า ตัวเธอได้ยินไหม ใจมันเพ้อครวญครางเวิ้งว้างได้ยินไหมเธอ
    (ซ้ำ*/**)
    Solo:Em D/C (4Times)
    (ซ้ำ*/**/**)

  • เด็กอุบล(จิ้ง)มือใหม่
    Guest
  • 21 เม.ย.2548,17:29น.
    เกานะ

    Em D

    1)--3------------------------3-------------3---------------------------3----------

    2)--------------------0---------------------------------------0------------

    3)------------0--------------------------------------0-----------------------

    4)--2--------------------------------------0----------

    5)------------------------------------------------------------------------------------------

    6)-------------------------------------------------------------------------------------------

    C

    1)--3----------------------3---------------------------------3-------------------

    2)------------------0-----------------------------0------------------------

    3)----------0--------------------------0------------------------------------------

    4)--------------------------------------------------------------------------------

    5)--3---------------------------------------------------------------------------------------

    6)-------------------------------------------------------------------------------------------



  • กิ๊กก๊อก Music
    Guest
  • 24 เม.ย.2548,13:27น.
    สาย1 --------------------------------------------------------------------------------7--h8--7--7-h8/10--10--8--7
    "2 -/7--h8--8--7--h8/10--10--8--7-----------------------7--h8--h9--10-------------------------------------7/8
    "3 -----------------------------------------7--7/9--9--7--h9
    เอาแค่ Intro ไปก็พอ ถ้าเล่น Intro อันนี้ได้จะเพราะที่สุด
1

ขอเชิญร่วมแสดงความคิดเห็นครับ

คลิกที่รูป เพื่อแทรกรูปลงในข้อความ
  • Member :
    username
    password
  • Not a member :
    name
    email