Loading

คอร์ดเพลง เงียบทำไม

ฟาเรนไฮต์ (Fahrenheit)

อัพโหลดคลิปเพลงนี้ที่คุณ ร้อง/เล่น ด้วยตัวคุณเอง ได้แล้ววันนี้
ระหว่างการทดสอบระบบหากพบข้อผิดพลาด กรุณาแจ้งที่นี่
เงียบทำไม

Artist : ฟาเรนไฮต์

Intro : ?
C Em F Fm
วันนี้คิดอะไร ทำเหมือนไม่รู้จัก อยู่ดีๆก็ทำเป็นเฉยไม่มองไม่อยากทัก

C Em F Fm

ดูไม่รักกันเลย ไม่สนใจกันเลย อยากลงเอยอย่างไรให้ช่วยเคลียร์

Am Em F Fm C

* ฉันไม่รู้ว่ามีอะไรทำให้ห่างกัน เงียบทำไมก็ฉันยังหวั่น อย่าเกรงใจกันให้ฉันรู้ความจริง

Em Am F G C Em C Am G C

** บอกมาได้ไหมบอกฉันให้รู้สักที ให้ฉันคิดๆคิดไปทำไม อยากจะมีใครก็มันเรื่องของใจ หากเธอจะไปฉันคงไม่ห้าม

ดนตรี : ?

G Em F Fm

วันนี้ฉันจะฟัง ยอมรับฟังทุกอย่าง หากจะมีอีกทางที่เห็นว่าดีจะตามใจ

G Em F Fm

ยังไม่รู้จริงๆ ฉันต้องทำยังไง อยู่ยังไงกับใจที่หายไป

(*,**)

Em Am F G C Em C Am G C

บอกกันให้รู้สักที ให้ฉันคิดๆคิดไปทำไม อยากจะมีใครก็มันเรื่องอของใจ หากเธอจะไปฉันคงไม่ห้าม
ดาวน์โหลด Full Song
กด *424243017326584
กด *424243017326584
ดาวน์โหลด Truetone
กด *424218017326584
กด *424218017326584
กด *424218017326584
ดาวน์โหลด Poly
กด *424214017326584
กด *424214017326584
กด *424214017326584
ดาวน์โหลด Mono
กด *424211017326584
กด *424211017326584
กด *424211017326584
* อัตราค่าบริการดาวน์โหลด Fullsong, Truetone, Poly, Mono : 35 บาท/เพลง
ส่งเพลงนี้ให้เพื่อน
วันที่โพสต์ : 3 ก.พ.2548,19:51น.
จำนวนผู้ชม : 74763 คน / แสดงความคิดเห็น : 31 ครั้ง
โพสต์โดย


จาก: pAnA
Guest
เพลงแนะนำ
เพลงฮิต
เลือกแสดงเฉพาะ :

  • Hades
    Guest
  • 24 ธ.ค.2548,17:33น.
    intro:
    

    1)---11/13/11-------11/13/11----------11/13/11--17^-11---11/13/11--17^-11--
    2)-----------------11----------------11--------------------------------------------------------------

    2)----------------------------------------10^--------------10^--------------------------------------
    3)---7/9/7-----7/9/7------7/9/7------7----7/9/7-----7-------------------------------------
    4)-----------7------------7----------------------------------------------------------------------------

    แกะคร้าวๆ ครับ พอดีตอนนี้อารมตงกะเพลง
  • Hades
    Guest
  • 24 ธ.ค.2548,17:33น.
    intro:

    1)---11/13/11-------11/13/11----------11/13/11--17^-11---11/13/11--17^-11--
    2)-----------------11----------------11--------------------------------------------------------------

    2)----------------------------------------10^--------------10^--------------------------------------
    3)---7/9/7-----7/9/7------7/9/7------7----7/9/7-----7-------------------------------------
    4)-----------7------------7----------------------------------------------------------------------------

    แกะคร้าวๆ ครับ พอดีตอนนี้อารมตงกะเพลง
  • Man_Waw
    Guest
  • 25 มี.ค.2549,15:00น.
    เงียบทำไม

    Artist : ฟาเรนไฮต์

    *** Tune Eb ***
    Intro : D/ F#m/ G Gm (2 times)

    D F#m G Gm
    วันนี้คิดอะไร ทำเหมือนไม่รู้จัก อยู่ดีๆก็ทำเป็นเฉยไม่มองไม่อยากทัก

    D F#m G Gm
    ดูไม่รักกันเลย ไม่สนใจกันเลย อยากลงเอยอย่างไรให้ช่วยเคลียร์

    Bm Em G Gm A D (Bm)
    * ฉันไม่รู้ว่ามีอะไรทำให้ห่างกัน เงียบทำไมก็ฉันยังหวั่น อย่าเกรงใจกันให้ฉันรู้ความจริง

    D F#m Em G A D F#m Em G A D
    ** บอกมาได้ไหมบอกฉันให้รู้สักที ให้ฉันคิดๆคิดไปทำไม อยากจะมีใครก็มันเรื่องของใจ หากเธอจะไปฉันคงไม่ห้าม

    ดนตรี : D/ F#m/ G Gm

    D F#m G Gm
    วันนี้ฉันจะฟัง ยอมรับฟังทุกอย่าง หากจะมีอีกทางที่เห็นว่าดีจะตามใจ

    D F#m G Gm A
    ยังไม่รู้จริงๆ ฉันต้องทำยังไง อยู่ยังไงกับใจที่หายไป

    (*,**)

    D/ F#m/ Em/ G A/
    โฮ๊ะ..โฮ้.... จะไม่ยื้อ....
    D/ F#m/ Em/ A/
    จะไม่ยื้อ....
    D/ F#m/ Em/ G A/ D
    โฮ๊ะ..โฮ้.... โฮ๊ะ..โฮ้....

    F#m Em G A D F#m Em G A D
    บอกกันให้รู้สักที ให้ฉันคิดๆคิดไปทำไม อยากจะมีใครก็มันเรื่องอของใจ หากเธอจะไปฉันคงไม่ห้าม


    *****ใช้เบสแกะนะครับ อาจจะมีพวกคอร์ด 7th หรืออื่นๆ ลองหากันดูนะครับ*****
1

ขอเชิญร่วมแสดงความคิดเห็นครับ

คลิกที่รูป เพื่อแทรกรูปลงในข้อความ
  • Member :
    username
    password
  • Not a member :
    name
    email