Loading

คอร์ดเพลง เจียมตัว

ไซแอม (Syam)

อัพโหลดคลิปเพลงนี้ที่คุณ ร้อง/เล่น ด้วยตัวคุณเอง ได้แล้ววันนี้
ระหว่างการทดสอบระบบหากพบข้อผิดพลาด กรุณาแจ้งที่นี่
เจียมตัว   Syam

ฉันเองไม่กล้าพอ ไปคิดคู่เธออย่างนั้น
ขอเพียงได้พูดกัน แค่นั้นถ้าเธอจะให้
ฉันมีก็แค่ใจ จะสู้อะไรกับเขา
เดี๋ยวใครจะว่าเอา ว่าคิดอะไรเกินตัว

*ฉันไม่ดีพอที่จะเป็น เป็นได้เหมือนดั่งเธอหวัง
ฉันไม่ต้องการให้รักเธอพัง ชีวิตยังอีกตั้งไกล
ฉันไม่ดีฉันโง่จะตาย วันนี้เธออาจทนไหว
ฉันไม่ดีฉันเซ่อจะตาย ไปรักคนอื่นดีกว่า

ไม่ใช่ ไม่รักเธอ แต่ฉันควรทำอย่างนี้
ขอเป็นแค่เพื่อนที่ดี เท่านี้ที่กล้าจะให้
ทั้งตัวและหัวใจ ฉันก็มีเธอเท่านั้น
ขอเพียงเท่านี้ แล้วกัน เก็บไว้ในใจก็พอ

ซ้ำ *

solo

ซ้ำ *

ฉันไม่ดีหรอกโง่จะตาย ไปรักคนอื่นดีกว่า

ฟังได้ที่นี่
http://www.atimemedia.com/vote/archives/001401.html
ดาวน์โหลด Full Song
กด *424243062446584
กด *424243062446584
ดาวน์โหลด Truetone
กด *424218062446584
กด *424218062446584
กด *424218062446584
ดาวน์โหลด Poly
กด *424214062446584
กด *424214062446584
กด *424214062446584
ดาวน์โหลด Mono
กด *424211062446584
กด *424211062446584
กด *424211062446584
* อัตราค่าบริการดาวน์โหลด Fullsong, Truetone, Poly, Mono : 35 บาท/เพลง
ส่งเพลงนี้ให้เพื่อน
วันที่โพสต์ : 20 มี.ค.2549,22:08น. 58.147.59.1
จำนวนผู้ชม : 359094 คน / แสดงความคิดเห็น : 228 ครั้ง
โพสต์โดย


จาก: loveloveaon
เข้าร่วม: 8 ปีก่อน
เพลง: 11
โพสต์: 110
เพลงแนะนำ
เพลงฮิต
เลือกแสดงเฉพาะ :

  • นิญจา เพ็ญพิท
    Guest
  • 22 มี.ค.2549,11:53น.
     นิญจา เพ็ญพิท
    


    เจียมตัว

    C#M G#M F#M E
    ฉันเองไม่กล้าพอ ไปคิดคู่เธออย่างนั้น
    C#M G#M F#M E
    ขอเพียงได้พูดกัน แค่นั้นถ้าเธอจะให้
    C#M G#M F#M E
    ฉันมีก็แค่ใจ จะสู้อะไรกับเขา
    C#M G#M F#M E
    เดี๋ยวใครจะว่าเอา ว่าคิดอะไรเกินตัว
    C#M G#M F#M E
    *ฉันไม่ดีพอที่จะเป็น เป็นได้เหมือนดั่งเธอหวัง
    C#M G#M F#M E
    ฉันไม่ต้องการให้รักเธอพัง ชีวิตยังอีกตั้งไกล
    C#M G#M F#M E
    ฉันไม่ดีฉันโง่จะตาย วันนี้เธออาจทนไหว
    C#M G#M F#M E
    ฉันไม่ดีฉันเซ่อจะตาย ไปรักคนอื่นดีกว่า
    C#M G#M F#M E
    ไม่ใช่ ไม่รักเธอ แต่ฉันควรทำอย่างนี้
    C#M G#M F#M E
    ขอเป็นแค่เพื่อนที่ดี เท่านี้ที่กล้าจะให้
    C#M G#M F#M E
    ทั้งตัวและหัวใจ ฉันก็มีเธอเท่านั้น
    C#M G#M F#M E
    ขอเพียงเท่านี้ แล้วกัน เก็บไว้ในใจก็พอ

    ซ้ำ *

    solo : C#M/G#M/F#M/E/C#M


    ซ้ำ *
    C#M G#M F#M E
    ฉันไม่ดีหรอกโง่จะตาย ไปรักคนอื่นดีกว่า

    น่าจะถูกนะครับผม นิญจา ขอลาไว้เจอกันใหม่เมื่อชาติต้องการ
  • นิญจา เพ็ญพิท
    Guest
  • 22 มี.ค.2549,11:53น.
     นิญจา เพ็ญพิท


    เจียมตัว

    C#M G#M F#M E
    ฉันเองไม่กล้าพอ ไปคิดคู่เธออย่างนั้น
    C#M G#M F#M E
    ขอเพียงได้พูดกัน แค่นั้นถ้าเธอจะให้
    C#M G#M F#M E
    ฉันมีก็แค่ใจ จะสู้อะไรกับเขา
    C#M G#M F#M E
    เดี๋ยวใครจะว่าเอา ว่าคิดอะไรเกินตัว
    C#M G#M F#M E
    *ฉันไม่ดีพอที่จะเป็น เป็นได้เหมือนดั่งเธอหวัง
    C#M G#M F#M E
    ฉันไม่ต้องการให้รักเธอพัง ชีวิตยังอีกตั้งไกล
    C#M G#M F#M E
    ฉันไม่ดีฉันโง่จะตาย วันนี้เธออาจทนไหว
    C#M G#M F#M E
    ฉันไม่ดีฉันเซ่อจะตาย ไปรักคนอื่นดีกว่า
    C#M G#M F#M E
    ไม่ใช่ ไม่รักเธอ แต่ฉันควรทำอย่างนี้
    C#M G#M F#M E
    ขอเป็นแค่เพื่อนที่ดี เท่านี้ที่กล้าจะให้
    C#M G#M F#M E
    ทั้งตัวและหัวใจ ฉันก็มีเธอเท่านั้น
    C#M G#M F#M E
    ขอเพียงเท่านี้ แล้วกัน เก็บไว้ในใจก็พอ

    ซ้ำ *

    solo : C#M/G#M/F#M/E/C#M


    ซ้ำ *
    C#M G#M F#M E
    ฉันไม่ดีหรอกโง่จะตาย ไปรักคนอื่นดีกว่า

    น่าจะถูกนะครับผม นิญจา ขอลาไว้เจอกันใหม่เมื่อชาติต้องการ
  • บีเตยงาม
    Guest
  • 24 มี.ค.2549,11:48น.
    Intro: E/G#m/A/E
    1)---------------------------------------------------0---------------------------------------------------
    2)------0-----------0----------------------------------4-0--------0-2-0------------------------------
    3)--------1-----------1----------------4-------------------2---------------1-------------------------
    4)---4-----4-----------4-2---------8---8-------------------------------------4--2-------------------
    5)--2------------2----------------6--------6------0---------0--0------------------------------------
    6)-0----------------------------4-------------4------------------------------------0-------------------

    Solo:

    1)-------------------------------------------------------------------------------------------------------
    2)-------------------------------------------------------------------------------------------------------
    3)-13--11--9------------------9-8-9-11-------9-8-9-11----------------------------------------
    4)---------------9--11-9-7-9-------------11-9------------------------------------------------------
    5)--------------------------------------------------------------------------------------------------------
    6)-------------------------------------------------------------------------------------------------------

    เล่นตามเพลงจะได้ไม่งงนะคับ
  • [BH] New Wang Hin
    Guest
  • 1 เม.ย.2549,12:43น.
    solo
    1)-------------------------------------------------------------------------------
    2)-10-8-6----------------6-5-6-8------6-5-6-8
    3)-----------5--7-5-3-5------------7-5-------------------------------------
    4)-----------------------------------------------------------------------------
    5)-------------------------------------------------------------------------------
    6)------------------------------------------------------------------------------
    ของแท้ รับประกัน ต้องการแท็บเพลงอะไรบอกเดี๋ยวจัดให้
  • แอ๊ด ปากน้ำโพ
    Guest
  • 1 เม.ย.2549,21:57น.
    solo
    1)-------------------------------------------------------------------------------
    2)-10-8-6----------------6-5-6-8------6-5-6-8
    3)-----------5--7-5-3-5------------7-5-------------------------------------
    4)-----------------------------------------------------------------------------
    5)-------------------------------------------------------------------------------
    6)------------------------------------------------------------------------------
  • NeWZaA
    Guest
  • 14 เม.ย.2549,09:43น.
    บอกให้หน่อย ผมว่านี้มากกว่านะ

    C#m/G#m/F#m/B/E

    ......................................................
    มากกว่านะ
  • 18 เม.ย.2549,12:54น.
    Tab Solo : เจียมตัว : Syam
    s=Slide h=Hammer On p=Pull Off



    E-------------------------------------------------------------------------------------------------------------
    B-----7s9---7----------------------------------------------------------------------------------------------
    G-----------------9------------------------------------8s9----8--9---11---------------8s9--8--9--11
    D--------------------9----9s11----9-----7-----7s9------------------------9s11--9------------------
    A-------------------------------------------------------------------------------------------------------------
    E-------------------------------------------------------------------------------------------------------------
  • 2 พ.ค.2549,10:42น.
    แบบนนี้แหละ น่าจะชัว มือใหม่ฮะ

    Intro: / F/ Am / Bb/F /

    F Am Bb C F
    ฉันเองไม่กล้าพอ ไปคิดคู่เธออย่างนั้น
    Dm Am Bb C F
    ขอเพียงได้พูดกัน แค่นั้นถ้าเธอจะให้
    Dm Am Bb C F
    ฉันมีก็แค่ใจ จะสู้อะไรกับเขา
    Dm Am Bb C F
    เดี๋ยวใครจะว่าเอา ว่าคิดอะไรเกินตัว
    Dm Am Bb C F
    * ฉันไม่ดีพอที่จะเป็น...เป็นได้เหมือนดั่งเธอหวัง
    Dm Am Bb C F
    ฉันไม่ต้องการให้รักเธอพัง ชีวิตยังอีกตั้งไกล
    Dm Am Bb C F
    ฉันไม่ดีฉันโง่จะตาย วันนี้เธออาจทนไหว
    Dm Am Bb C F...Bb/F
    ฉันไม่ดี...ฉันเซ่อจะตาย ไปรักคนอื่นดีกว่า
    F Am Bb C F
    ไม่ใช่ไม่รักเธอ แต่ฉันควรทำอย่างนี้
    Dm Am Bb C F
    ขอเป็นแค่เพื่อนที่ดี เท่านี้ที่กล้าจะให้
    Dm Am Bb C F
    ทั้งตัวและหัวใจ ฉันก็มีเธอเท่านั้น
    Dm Am Bb C F
    ขอเพียงเท่านี้แล้วกัน เก็บไว้ในใจก็พอ

    (ซ้ำ *)

    Solo: / F/ Am / Bb /F/Dm/Am/Gm/CAm//
    ( ซ้ำ * )

    Dm Am
    ฉันไม่ดีหรอกโง่จะตาย
    Bb C F.......
    ไปรักคนอื่นดีกว่า........

    ((ขอคอร์ดกีต้าร์))
  • ฉิม ม.สะพานดำ
    Guest
  • 2 พ.ค.2549,20:56น.
    ผมไม่เก่งนะคับ ลองเล่นดู
    คอร์ด E อินโท จับคอร์ด E นะจ๊ะและก็ต่อ G#m
    เริ่มจาก E G#m
    1-----------------0----------------0---------------I-----------------4----------------
    2---------------------0------------------0---------------------4-----------4---------
    3--------------------------1--1--------------1-----------4--------------------4------
    4----------2------------------------------------------6-----------------------------6---
    5-------2--------------------------------------------------------------------------------
    6---0-----------------------------------------------------------------------------------

    ถ้าผิดผลาด ก็อย่าว่ากันนะคับ วันหลังจะมาเขียนต่อ
  • ท๊อป (มือใหม่ครับ)
    Guest
  • 14 พ.ค.2549,15:26น.
    2)----------------------------------------------6s8-8-7-8-(8)s10-10-------------
    3)----2s4--2--0----5s7--5--4--5s7-----------------------------------9---7------

    2)----6s8-8-7-8-8s10-10------
  • takahara
    Guest
  • 22 พ.ค.2549,11:38น.
    F              Am      Gm    C          F
    ฉันเองไม่กล้าพอ ไปคิดคู่เธออย่างนั้น
    Dm Am Gm C F
    ขอเพียงได้พูดกัน แค่นั้นถ้าเธอจะให้
    Dm Am Gm C F
    ฉันมีก็แค่ใจ จะสู้อะไรกับเขา
    Dm Am Gm C F
    เดี๋ยวใครจะว่าเอา ว่าคิดอะไรเกินตัว
    Dm Am Gm C F
    * ฉันไม่ดีพอที่จะเป็น...เป็นได้เหมือนดั่งเธอหวัง
    Dm Am Gm C F
    ฉันไม่ต้องการให้รักเธอพัง ชีวิตยังอีกตั้งไกล
    Dm Am Gm C F
    ฉันไม่ดีฉันโง่จะตาย วันนี้เธออาจทนไหว
    Dm Am Gm C F...Bb/F
    ฉันไม่ดี...ฉันเซ่อจะตาย ไปรักคนอื่นดีกว่า
    F Am Gm C F
    ไม่ใช่ไม่รักเธอ แต่ฉันควรทำอย่างนี้
    Dm Am Gm C F
    ขอเป็นแค่เพื่อนที่ดี เท่านี้ที่กล้าจะให้
    Dm Am Gm C F
    ทั้งตัวและหัวใจ ฉันก็มีเธอเท่านั้น
    Dm Am Gm C F
    ขอเพียงเท่านี้แล้วกัน เก็บไว้ในใจก็พอ

    (ซ้ำ *)

    Solo: / F/ Am / Bb /F/Dm/Am/Gm/CAm//
    ( ซ้ำ * )

    Dm Am
    ฉันไม่ดีหรอกโง่จะตาย
    Gm C F.......
    ไปรักคนอื่นดีกว่า........
  • เด็กราม
    Guest
  • 22 พ.ค.2549,13:24น.
    เราว่าท่อนSOLOน่าจาเปนงี้นะ
    1)----------------------------------------------------------------------------------------
    2)----------------------------------------------------------------------------------------
    3) 12s14 10------------------------ 9s10 9 10 12--------------9s10 9 10 12
    4) -------------10 10s12 10 8 10------------------- 10s12 10------------------
    5)----------------------------------------------------------------------------------------

    ลองเล่นดูนะ เพิ่งแกะ
  • AA_THAITA
    Guest
  • 31 พ.ค.2549,18:17น.
    คีย์ E น่ะคับ คัย Eb ก้อดรอปมาเป็น E ก่อนน่ะครับ จาได้ไม่งง
    1)----------------------------------------------------------------------------------------
    2)----------------------------------------------------------------------------------------
    3)---11s13-11-9----------------------7s9-8-9-11-----------7s9-8-9-11------
    4)-------------------9-9s11-9-7-7s9----------------9h11-9----------------------
    5)----------------------------------------------------------------------------------------
    6)----------------------------------------------------------------------------------------
    ติชมได้น่ะครับ
    B_Boy-sa-tunhotmail.com ถามได้ครับ
  • AA_THAITA
    Guest
  • 31 พ.ค.2549,18:28น.
    1-------------------------------------------------------------------------
    2------------------0-------------------0----------------------------------
    3-----------------------1------------------------------1-------------------
    4------------4--------------2----2----------2-----------------------------
    5--------2-----------------------------------------------------------------
    6----0---------------------------------------------------------------------

    ต่อกันเลยนะคับ วางนิ้วแบบนี้นะคับจะได้ไม่ งง นิ้วกลาง สาย 6 ช่อง 4 นิ้วก้อยสาย 4 ช่อง 6 นิ้วชี้สาย3 ช่อง 3 คับ

    1---------------------------------------------------------------------
    2--------------------------0------------------------------------------
    3---------------------3--------3--------------------------------------
    4--------------6------------------------6-----------------------------
    5---------------------------------------------------------------------
    6--------4------------------------------------4-----------------------

    ต่อคับ
    นิ้วชี้สาย4 ช่อง2 นิ้วนางสาย3กับนิ้วก้อยสาย 2 จับช่อง 4 ไว้คับ 0/2 ดีด สายป่าวแล้วก็กด ผมเขียนแทปไม่ค่อยเป็น ไม่รู้เค้าแทนว่าไรใครรู้ช่วยบอกด้วยนะคับ 4ร6 ร ก็รูดไปนะคับ อิอิ
    1-----0--------------------------------------------------------------------------------
    2--------------4--------------------------0/2----------------------------------------
    3--------------------4-----------------------------------------------------------------
    4--------------------------2-------2-------------------4s6-----6s4----2-2--------
    5-----0--------------------------------------------------------------------------------
    6--------------------------------------------------------------------------------------

    ขอแก้ไขหน่อยน่ะครับ
  • AA_THAITA
    Guest
  • 31 พ.ค.2549,18:28น.
    1-------------------------------------------------------------------------
    2------------------0-------------------0----------------------------------
    3-----------------------1------------------------------1-------------------
    4------------4--------------2----2----------2-----------------------------
    5--------2-----------------------------------------------------------------
    6----0---------------------------------------------------------------------

    ต่อกันเลยนะคับ วางนิ้วแบบนี้นะคับจะได้ไม่ งง นิ้วกลาง สาย 6 ช่อง 4 นิ้วก้อยสาย 4 ช่อง 6 นิ้วชี้สาย3 ช่อง 3 คับ

    1---------------------------------------------------------------------
    2--------------------------0------------------------------------------
    3---------------------3--------3--------------------------------------
    4--------------6------------------------6-----------------------------
    5---------------------------------------------------------------------
    6--------4------------------------------------4-----------------------

    ต่อคับ
    นิ้วชี้สาย4 ช่อง2 นิ้วนางสาย3กับนิ้วก้อยสาย 2 จับช่อง 4 ไว้คับ 0/2 ดีด สายป่าวแล้วก็กด ผมเขียนแทปไม่ค่อยเป็น ไม่รู้เค้าแทนว่าไรใครรู้ช่วยบอกด้วยนะคับ 4ร6 ร ก็รูดไปนะคับ อิอิ
    1-----0--------------------------------------------------------------------------------
    2--------------4--------------------------0/2----------------------------------------
    3--------------------4-----------------------------------------------------------------
    4--------------------------2-------2-------------------4s6-----6s4----2-2--------
    5-----0--------------------------------------------------------------------------------
    6--------------------------------------------------------------------------------------

    ขอแก้ไขหน่อยน่ะครับ
  • AA_THAITA
    Guest
  • 31 พ.ค.2549,18:29น.
    1-------------------------------------------------------------------------
    2------------------0-------------------0----------------------------------
    3-----------------------1------------------------------1-------------------
    4------------4--------------2----2----------2-----------------------------
    5--------2-----------------------------------------------------------------
    6----0---------------------------------------------------------------------

    ต่อกันเลยนะคับ วางนิ้วแบบนี้นะคับจะได้ไม่ งง นิ้วกลาง สาย 6 ช่อง 4 นิ้วก้อยสาย 4 ช่อง 6 นิ้วชี้สาย3 ช่อง 3 คับ

    1---------------------------------------------------------------------
    2--------------------------0------------------------------------------
    3---------------------3--------3--------------------------------------
    4--------------6------------------------6-----------------------------
    5---------------------------------------------------------------------
    6--------4------------------------------------4-----------------------

    ต่อคับ
    นิ้วชี้สาย4 ช่อง2 นิ้วนางสาย3กับนิ้วก้อยสาย 2 จับช่อง 4 ไว้คับ 0/2 ดีด สายป่าวแล้วก็กด ผมเขียนแทปไม่ค่อยเป็น ไม่รู้เค้าแทนว่าไรใครรู้ช่วยบอกด้วยนะคับ 4ร6 ร ก็รูดไปนะคับ อิอิ
    1-----0--------------------------------------------------------------------------------
    2--------------4--------------------------0/2----------------------------------------
    3--------------------4-----------------------------------------------------------------
    4--------------------------2-------2-------------------4s6-----6s4----2-2--------
    5-----0--------------------------------------------------------------------------------
    6--------------------------------------------------------------------------------------

    ขอแก้ไขหน่อยน่ะครับ
  • AA_THAITA
    Guest
  • 31 พ.ค.2549,18:42น.
    ผิดๆ เปลี่ยนหน่อยนึงน่ะ
    1-----0--------------------------------------------------------------------------------
    2--------------4--------------------------0/2----------------------------------------
    3--------------------4-----------------------------------------------------------------
    4-----------------------------------------------------4s6-----6s4----2-2--------
    5-----0-------------------0--------------0--------------------------------------------
    6--------------------------------------------------------------------------------------

  • top...lamphun
    Guest
  • 2 มิ.ย.2549,23:17น.
    Intro: / E G#m / A E /

    E G#m A B E
    ฉันเองไม่กล้าพอ ไปคิดคู่เธออย่างนั้น
    C#m G#m A B E
    ขอเพียงได้พูดกัน แค่นั้นถ้าเธอจะให้
    C#m G#m A B E
    ฉันมีก็แค่ใจ จะสู้อะไรกับเขา
    C#m G#m A B E
    เดี๋ยวใครจะว่าเอา ว่าคิดอะไรเกินตัว
    C#m G#m A B E
    * ฉันไม่ดีพอที่จะเป็น...เป็นได้เหมือนดั่งเธอหวัง
    C#m G#m A B E
    ฉันไม่ต้องการให้รักเธอพัง ชีวิตยังอีกตั้งไกล
    C#m G#m A B E
    ฉันไม่ดีฉันโง่จะตาย วันนี้เธออาจทนไหว
    C#m G#m A B E
    ฉันไม่ดี...ฉันเซ่อจะตาย ไปรักคนอื่นดีกว่า
    E G#m A B E
    ไม่ใช่ไม่รักเธอ แต่ฉันควรทำอย่างนี้
    C#m G#m A B E
    ขอเป็นแค่เพื่อนที่ดี เท่านี้ที่กล้าจะให้
    C#m G#m A B E
    ทั้งตัวและหัวใจ ฉันก็มีเธอเท่านั้น
    C#m G#m A B E
    ขอเพียงเท่านี้แล้วกัน เก็บไว้ในใจก็พอ

    (ซ้ำ *)

    Solo: / E G#m / A E / C#m G#m / A E /

    (ซ้ำ *)

    C#m G#m
    ฉันไม่ดีหรอกโง่จะตาย
    A B E
    ไปรักคนอื่นดีกว่า

  • รักนะเด็กโง่
    Guest
  • 22 มิ.ย.2549,18:48น.
    น้องตั้มมาสรุปอินโทรให้คับ
    **** ( / = รูดสายอ่ะ )*****
    ดีด คอร์ด A
    \/
    2----------0----------0--------------------0-------------- --4-----------------------------------------
    3-------------1----------1---------------3---3------------ -----4--2----2--4/6/4/2---------------
    4-------4-------4--2------2----------6--------6--------- -------------------------------/6/4/2--2
    5----2------------------------2---------------------------- --------------------------------------------
    6--0--------------------------------4--------------4------ --------------------------------------------


    ใม่ใช่ให้ตื้บเลย 55555555555555555555
  • 28 มิ.ย.2549,11:05น.
    เอามั้งอยากดัง
    1-------------------------------------------------------------------------
    2------------------0-------------------0----------------------------------
    3-----------------------1------------------------------1-------------------
    4------------4--------------2----2----------2-----------------------------
    5--------2-----------------------------------------------------------------
    6----0---------------------------------------------------------------------

    ต่อกันเลยนะคับ วางนิ้วแบบนี้นะคับจะได้ไม่ งง นิ้วกลาง สาย 6 ช่อง 4 นิ้วก้อยสาย 4 ช่อง 6 นิ้วชี้สาย3 ช่อง 3 คับ

    1---------------------------------------------------------------------
    2--------------------------0------------------------------------------
    3---------------------3--------3--------------------------------------
    4--------------6------------------------6-----------------------------
    5---------------------------------------------------------------------
    6--------4------------------------------------4-----------------------

    ต่อคับ
    นิ้วชี้สาย4 ช่อง2 นิ้วนางสาย3กับนิ้วก้อยสาย 2 จับช่อง 4 ไว้คับ 0/2 ดีด สายป่าวแล้วก็กด ผมเขียนแทปไม่ค่อยเป็น ไม่รู้เค้าแทนว่าไรใครรู้ช่วยบอกด้วยนะคับ 4ร6 ร ก็รูดไปนะคับ อิอิ
    1-----0--------------------------------------------------------------------------------
    2--------------4--------------------------0/2----------------------------------------
    3--------------------4-----------------------------------------------------------------
    4--------------------------2-------2-------------------4s6-----6s4----2-2--------
    5-----0--------------------------------------------------------------------------------
    6--------------------------------------------------------------------------------------

    ขอแก้ไขหน่อยน่ะครับ




    AA_THAITA 58.147.124.154 [ วันพุธ ที่ 31 พฤษภาคม 2549 เวลา 18:28 น. ] [ x ] ผู้ตอบคนที่ 144
    1-------------------------------------------------------------------------
    2------------------0-------------------0----------------------------------
    3-----------------------1------------------------------1-------------------
    4------------4--------------2----2----------2-----------------------------
    5--------2-----------------------------------------------------------------
    6----0---------------------------------------------------------------------

    ต่อกันเลยนะคับ วางนิ้วแบบนี้นะคับจะได้ไม่ งง นิ้วกลาง สาย 6 ช่อง 4 นิ้วก้อยสาย 4 ช่อง 6 นิ้วชี้สาย3 ช่อง 3 คับ

    1---------------------------------------------------------------------
    2--------------------------0------------------------------------------
    3---------------------3--------3--------------------------------------
    4--------------6------------------------6-----------------------------
    5---------------------------------------------------------------------
    6--------4------------------------------------4-----------------------

    ต่อคับ
    นิ้วชี้สาย4 ช่อง2 นิ้วนางสาย3กับนิ้วก้อยสาย 2 จับช่อง 4 ไว้คับ 0/2 ดีด สายป่าวแล้วก็กด ผมเขียนแทปไม่ค่อยเป็น ไม่รู้เค้าแทนว่าไรใครรู้ช่วยบอกด้วยนะคับ 4ร6 ร ก็รูดไปนะคับ อิอิ
    1-----0--------------------------------------------------------------------------------
    2--------------4--------------------------0/2----------------------------------------
    3--------------------4-----------------------------------------------------------------
    4--------------------------2-------2-------------------4s6-----6s4----2-2--------
    5-----0--------------------------------------------------------------------------------
    6--------------------------------------------------------------------------------------

    ขอแก้ไขหน่อยน่ะครับ




    AA_THAITA 58.147.124.154 [ วันพุธ ที่ 31 พฤษภาคม 2549 เวลา 18:29 น. ] [ x ] ผู้ตอบคนที่ 145
    1-------------------------------------------------------------------------
    2------------------0-------------------0----------------------------------
    3-----------------------1------------------------------1-------------------
    4------------4--------------2----2----------2-----------------------------
    5--------2-----------------------------------------------------------------
    6----0---------------------------------------------------------------------

    ต่อกันเลยนะคับ วางนิ้วแบบนี้นะคับจะได้ไม่ งง นิ้วกลาง สาย 6 ช่อง 4 นิ้วก้อยสาย 4 ช่อง 6 นิ้วชี้สาย3 ช่อง 3 คับ

    1---------------------------------------------------------------------
    2--------------------------0------------------------------------------
    3---------------------3--------3--------------------------------------
    4--------------6------------------------6-----------------------------
    5---------------------------------------------------------------------
    6--------4------------------------------------4-----------------------

    ต่อคับ
    นิ้วชี้สาย4 ช่อง2 นิ้วนางสาย3กับนิ้วก้อยสาย 2 จับช่อง 4 ไว้คับ 0/2 ดีด สายป่าวแล้วก็กด ผมเขียนแทปไม่ค่อยเป็น ไม่รู้เค้าแทนว่าไรใครรู้ช่วยบอกด้วยนะคับ 4ร6 ร ก็รูดไปนะคับ อิอิ
    1-----0--------------------------------------------------------------------------------
    2--------------4--------------------------0/2----------------------------------------
    3--------------------4-----------------------------------------------------------------
    4--------------------------2-------2-------------------4s6-----6s4----2-2--------
    5-----0--------------------------------------------------------------------------------
    6--------------------------------------------------------------------------------------

    ขอแก้ไขหน่อยน่ะครับ




    AA_THAITA 58.147.124.154 [ วันพุธ ที่ 31 พฤษภาคม 2549 เวลา 18:42 น. ] [ x ] ผู้ตอบคนที่ 146
    ผิดๆ เปลี่ยนหน่อยนึงน่ะ
    1-----0--------------------------------------------------------------------------------
    2--------------4--------------------------0/2----------------------------------------
    3--------------------4-----------------------------------------------------------------
    4-----------------------------------------------------4s6-----6s4----2-2--------
    5-----0-------------------0--------------0--------------------------------------------
    6--------------------------------------------------------------------------------------




    ((ขอคอร์ดกีต้าร์))
  • คนเดิม
    Guest
  • 4 ส.ค.2549,18:40น.
    1/-------------------------------------------------------------------------------------------------------------
    2/-9s11-9--------------------------------------------------------------------------------------------------
    3/-------------11---------------------------10s11-10-11-13---------------10s11-10-10s11s13
    4/-----------------11-11s13-11-9s11------------------------11s13-11-----------------------------
    5/-------------------------------------------------------------------------------------------------------------
    6/-------------------------------------------------------------------------------------------------------------
    ขอโทษคับผิดไปนิดนึง ตอนท้าย อันนี้ชัวร์ ลองดูแล้วกาน ดีไม่ดี บอกมาได้คับ
  • 555
    Guest
  • 19 ต.ค.2549,01:25น.
    solo
    1)-------------------------------------------------------------------------------
    2)-10-8-6----------------6-5-6-8------6-5-6-8
    3)-----------5--7-5-3-5------------7-5-------------------------------------
    4)-----------------------------------------------------------------------------
    5)-------------------------------------------------------------------------------
    6)------------------------------------------------------------------------------
  • d..e......`n`tOucH`G` Pae` Num ครบวง ดนตรี อิอิ
    Guest
  • 28 พ.ย.2549,20:30น.
    เหอะๆ ผม เด็กป.6 นะ ความเจงไม่อยากบอกหรอก เหอๆ -*- เหง มั่วกันหมด ป.6 แต่ผม แกะทุกเม็ดอ่ะ มา คอร์ดเจงๆอ่ะ เล่นงี้ครับ
    Intro: / E G#m / A E /

    E G#m A B E
    ฉันเองไม่กล้าพอ ไปคิดคู่เธออย่างนั้น
    C#m G#m A B E
    ขอเพียงได้พูดกัน แค่นั้นถ้าเธอจะให้
    C#m G#m A B E
    ฉันมีก็แค่ใจ จะสู้อะไรกับเขา
    C#m G#m A B E
    เดี๋ยวใครจะว่าเอา ว่าคิดอะไรเกินตัว
    C#m G#m A B E
    * ฉันไม่ดีพอที่จะเป็น...เป็นได้เหมือนดั่งเธอหวัง
    C#m G#m A B E
    ฉันไม่ต้องการให้รักเธอพัง ชีวิตยังอีกตั้งไกล
    C#m G#m A B E
    ฉันไม่ดีฉันโง่จะตาย วันนี้เธออาจทนไหว
    C#m G#m A B E
    ฉันไม่ดี...ฉันเซ่อจะตาย ไปรักคนอื่นดีกว่า
    E G#m A B E
    ไม่ใช่ไม่รักเธอ แต่ฉันควรทำอย่างนี้
    C#m G#m A B E
    ขอเป็นแค่เพื่อนที่ดี เท่านี้ที่กล้าจะให้
    C#m G#m A B E
    ทั้งตัวและหัวใจ ฉันก็มีเธอเท่านั้น
    C#m G#m A B E
    ขอเพียงเท่านี้แล้วกัน เก็บไว้ในใจก็พอ

    (ซ้ำ *)

    Solo: / E G#m / A E / C#m G#m / A E /

    (ซ้ำ *)

    C#m G#m
    ฉันไม่ดีหรอกโง่จะตาย
    A B E
    ไปรักคนอื่นดีกว่า

    Intro นี่อย่ามั่วนะครับ บอกให้ว่าพวกคุณผิดตรงไหน ไม่อยากบอกเลยอ่ะ ครูอุส่า สอนมา อิอิ

    1)-------------------------------------------------------------------------------
    2)--------------------------------------------------
    3)------------------------------------------------------------
    4)-----------------------------------------------------------------------------
    5)----------4--<< นี่และครับที่ ผิดกัน-------------------------------------------------------------------
    6)----0--------------------------------------------------------------------------
    ส่วนเกาก็ อ่ะ ผมบอกให้เลย ละกัน เอ้ยไม่ดีก่า ผมอยากจะรู้ครับ ใครจะเก่งจริงๆ แน่จริงมาพิมพ์ไว้



    บอกให้ว่า คอร์ดแรก ของสาย E ดีด สายเปล่า แล้วก็ ดีด สาย4 3 2 1
    แล้วกลับมา อ่ะ ใครเก่งก่า เชิญครับ ป.6 เองนะ หุหุ ขี้ๆ Anubanpathum thani
  • ปรเมษฐ์
    Guest
  • 16 ม.ค.2550,20:25น.

    intro

    1------------------------------------------------------------------------
    2------------------0----------------------0-------------------------------
    3-----------------------1--------------------1------------------3-4-3---------
    4------------4--------------4----2-----2-------4--2---------6---------6-------
    5--------2--------------------------4---------------------------------------
    6----0--------------------------------------------------4------------------4
    -
    1-----0--------------------------------------------------------------------------------
    2--------------4--0-------------0h2h0---------------------------------------------
    3--------------------2-----2------------------------------------------------------------
    4-------------------------------------------4s6-----6s4----2-2--------
    5-----0-----------------0---------------------------------------------------------------
    6------------------------------------------------------------------0--------------------

    paramet_zaahotmail.com ลองโพสดูครับมถูกป่าวนะเล่นดูและกันครับ
  • Be[A]stA
    Guest
  • 31 ธ.ค.2550,16:58น.


    ของคุณเฟิร์ส ถูกต้องแล้วคร้าบ แต่ขอแก้ตอนหลังนิสนึงนะครับ

    Tab Solo : เจียมตัว : Syam
    s=Slide h=Hammer On p=Pull Off



    E-------------------------------------------------------------------------------------------------------------
    B-----7s9---7----------------------------------------------------------------------------------------------
    G-----------------9------------------------------------8s9----8--9---11---------------8s9--8--9-s11
    D--------------------9----9s11----9-----7-----7s9------------------------9s11--9------------------
    A-------------------------------------------------------------------------------------------------------------
    E-------------------------------------------------------------------------------------------------------------

    ขอบคุณมากครับคุณ เฟิร์ส ^^
  • tong Uni. Siam
    Guest
  • 15 ม.ค.2551,14:26น.
    ลองดูกันนะ  เราว่าคอร์ดนี้แม่นกว่านะ
    Intro: / E/ C#m / Asus2/E

    E G#m F#m B E
    ฉันเองไม่กล้าพอ ไปคิดคู่เธออย่างนั้น
    C#m G#m F#m B E
    ขอเพียงได้พูดกัน แค่นั้นถ้าเธอจะให้
    C#m G#m F#m B E
    ฉันมีก็แค่ใจ จะสู้อะไรกับเขา
    C#m G#m F#m B E
    เดี๋ยวใครจะว่าเอา ว่าคิดอะไรเกินตัว
    C#m G#m F#m B E
    * ฉันไม่ดีพอที่จะเป็น...เป็นได้เหมือนดั่งเธอหวัง
    C#m G#m F#m B E
    ฉันไม่ต้องการให้รักเธอพัง ชีวิตยังอีกตั้งไกล
    C#m G#m F#m B E
    ฉันไม่ดีฉันโง่จะตาย วันนี้เธออาจทนไหว
    C#m G#m F#m B E (A/ E)
    ฉันไม่ดี...ฉันเซ่อจะตาย ไปรักคนอื่นดีกว่า
    E G#m F#m B E
    ไม่ใช่ไม่รักเธอ แต่ฉันควรทำอย่างนี้
    C#m G#m F#m B E
    ขอเป็นแค่เพื่อนที่ดี เท่านี้ที่กล้าจะให้
    C#m G#m F#m B E
    ทั้งตัวและหัวใจ ฉันก็มีเธอเท่านั้น
    C#m G#m F#m B E
    ขอเพียงเท่านี้แล้วกัน เก็บไว้ในใจก็พอ

    (ซ้ำ *)

    Solo: / E/ C#m / A /E/C#m/G#m/A/B/F#/
    ( ซ้ำ * )

    C#m G#m
    ฉันไม่ดีหรอกโง่จะตาย
    F#m B E
    ไปรักคนอื่นดีกว่า........
  • tong Uni. Siam
    Guest
  • 15 ม.ค.2551,14:38น.
    โทดครับขอแก้ใหม่ตรงintro
    Intro: / E/ G#m / Asus2/E

    E G#m F#m B E
    ฉันเองไม่กล้าพอ ไปคิดคู่เธออย่างนั้น
    C#m G#m F#m B E
    ขอเพียงได้พูดกัน แค่นั้นถ้าเธอจะให้
    C#m G#m F#m B E
    ฉันมีก็แค่ใจ จะสู้อะไรกับเขา
    C#m G#m F#m B E
    เดี๋ยวใครจะว่าเอา ว่าคิดอะไรเกินตัว
    C#m G#m F#m B E
    * ฉันไม่ดีพอที่จะเป็น...เป็นได้เหมือนดั่งเธอหวัง
    C#m G#m F#m B E
    ฉันไม่ต้องการให้รักเธอพัง ชีวิตยังอีกตั้งไกล
    C#m G#m F#m B E
    ฉันไม่ดีฉันโง่จะตาย วันนี้เธออาจทนไหว
    C#m G#m F#m B E (A/ E)
    ฉันไม่ดี...ฉันเซ่อจะตาย ไปรักคนอื่นดีกว่า
    E G#m F#m B E
    ไม่ใช่ไม่รักเธอ แต่ฉันควรทำอย่างนี้
    C#m G#m F#m B E
    ขอเป็นแค่เพื่อนที่ดี เท่านี้ที่กล้าจะให้
    C#m G#m F#m B E
    ทั้งตัวและหัวใจ ฉันก็มีเธอเท่านั้น
    C#m G#m F#m B E
    ขอเพียงเท่านี้แล้วกัน เก็บไว้ในใจก็พอ

    (ซ้ำ *)

    Solo: / E/ C#m / A /E/C#m/G#m/A/B/F#/
    ( ซ้ำ * )

    C#m G#m
    ฉันไม่ดีหรอกโง่จะตาย
    F#m B E
    ไปรักคนอื่นดีกว่า........
1

ขอเชิญร่วมแสดงความคิดเห็นครับ

คลิกที่รูป เพื่อแทรกรูปลงในข้อความ
  • Member :
    username
    password
  • Not a member :
    name
    email