Loading

คอร์ดเพลง เจ็บทุกทาง

แบชเชอร์(Basher)

อัพโหลดคลิปเพลงนี้ที่คุณ ร้อง/เล่น ด้วยตัวคุณเอง ได้แล้ววันนี้
ระหว่างการทดสอบระบบหากพบข้อผิดพลาด กรุณาแจ้งที่นี่
Print


ใครหนึ่งคนก็ทำ ทุกๆอย่าง

ทุกหนทางเพื่อเหนี่ยวรั้ง ไม่ต้องการร่ำลา

ใครอีกคนก็สร้าง ปัญหา

ทำทุกทางเพื่อจากลา อยากให้รักจบไป


*ทุกทางออก ไม่ว่าเธอนั้นจะทนอยู่ หรือฉันยอมแพ้ให้รักเราจบ

มันก็ปวดหัวใจ


**ไม่มีทางไหนไม่ปวดร้าวยังไงก็เจ็บช้ำ

ต่อให้ฉันจะพยายมซักแค่ไหน

ฉันไม่หมดรักเธอเองก็ยังอยากจากไป

เหมือนไม่มีทางไหนที่ใจฉันไม่เจ็บ


เริ่มละครเรื่องนี้ ยังสวยงาม

ในทุกคำที่บอกรัก มันก็ยังฝังใจ โฮ...

ในตอนสุดท้ายต้องพบเจอเรื่องเลวร้าย

จบยังไงก็ช้ำ


*, **


solo



ไม่มีทางไหนไม่ปวดร้าวยังไงก็เจ็บช้ำ

ต่อให้ฉันจะพยายมซักแค่ไหน

ฉันไม่หมดรักเธอเองก็ยังอยากจากไป

ฉันไม่เหลือทางไหน

ถึงใจฉันจะรัก ใจเธอก็ยังต้องการจากไป

เหมือนไม่มีทางไหนที่ฉันไม่ต้องเจ็บ


ใครหนึ่งคนยังทำทุกๆอย่าง

จบหนทางเพื่อเหนี่ยวรั้ง

ไม่ให้เธอร่ำ...ลา


http://www.musicatm.com/thai/คอร์ดเพลง-เจ็บทุกทาง-แบชเชอร์(Basher)-8870.html
ส่งเพลงนี้ให้เพื่อน
วันที่โพสต์ : 18 มิ.ย.2550,14:32น. 203.153.166.86
จำนวนผู้ชม : 81302 คน / แสดงความคิดเห็น : 55 ครั้ง
โพสต์โดย


จาก: o
เข้าร่วม: 8 ปีก่อน
เพลง: 0
โพสต์: 14
เพลงแนะนำ
เพลงฮิต
เลือกแสดงเฉพาะ :

  • .........................
    Guest
  • 4 ก.ค.2550,21:07น.


    B F#
    ใครหนึ่งคนก็ทำ ทุกๆอย่าง
    G#m E/F#
    ทุกหนทางเพื่อเหนี่ยวรั้ง ไม่ต้องการร่ำลา
    B F#
    ใครอีกคนก็สร้าง ปัญหา
    G#m E/F#
    ทำทุกทางเพื่อจากลา อยากให้รักจบไป

    E C#m F#
    *ทุกทางออก ไม่ว่าเธอนั้นจะทนอยู่ หรือฉันยอมแพ้ให้รักเราจบ
    มันก็ปวดหัวใจ


    B D#m G#m
    **ไม่มีทางไหนไม่ปวดร้าวยังไงก็เจ็บช้ำ
    C#m F#
    ต่อให้ฉันจะพยายมซักแค่ไหน
    Eb G#m
    ฉันไม่หมดรักเธอเองก็ยังอยากจากไป
    C#m F# B
    เหมือนไม่มีทางไหนที่ใจฉันไม่เจ็บ


  • .........................
    Guest
  • 4 ก.ค.2550,21:07น.


    B F#
    ใครหนึ่งคนก็ทำ ทุกๆอย่าง
    G#m E/F#
    ทุกหนทางเพื่อเหนี่ยวรั้ง ไม่ต้องการร่ำลา
    B F#
    ใครอีกคนก็สร้าง ปัญหา
    G#m E/F#
    ทำทุกทางเพื่อจากลา อยากให้รักจบไป

    E C#m F#
    *ทุกทางออก ไม่ว่าเธอนั้นจะทนอยู่ หรือฉันยอมแพ้ให้รักเราจบ
    มันก็ปวดหัวใจ


    B D#m G#m
    **ไม่มีทางไหนไม่ปวดร้าวยังไงก็เจ็บช้ำ
    C#m F#
    ต่อให้ฉันจะพยายมซักแค่ไหน
    Eb G#m
    ฉันไม่หมดรักเธอเองก็ยังอยากจากไป
    C#m F# B
    เหมือนไม่มีทางไหนที่ใจฉันไม่เจ็บ


  • อาร์ท
    Guest
  • 31 ก.ค.2550,23:54น.
  • gonzajr
    Guest
  • 3 ส.ค.2550,17:37น.
    เห็นของคุณ..............................พิมพ์มาเท่านี้เลยต่อให้แหะๆ(สงสัยคงขี้เกียจกระมัง)

    intro: B / F# / G#m / F#

    B F#
    ใครหนึ่งคนก็ทำ ทุกๆอย่าง
    G#m E/F#
    ทุกหนทางเพื่อเหนี่ยวรั้ง ไม่ต้องการร่ำลา
    B F#
    ใครอีกคนก็สร้าง ปัญหา
    G#m E/F#
    ทำทุกทางเพื่อจากลา อยากให้รักจบไป

    E C#m F#
    *ทุกทางออก ไม่ว่าเธอนั้นจะทนอยู่ หรือฉันยอมแพ้ให้รักเราจบ

    มันก็ปวดหัวใจ

    B D#m G#m
    **ไม่มีทางไหนไม่ปวดร้าวยังไงก็เจ็บช้ำ
    C#m F#
    ต่อให้ฉันจะพยายมซักแค่ไหน
    Eb G#m
    ฉันไม่หมดรักเธอเองก็ยังอยากจากไป
    C#m F# B
    เหมือนไม่มีทางไหนที่ใจฉันไม่เจ็บ

    intro: B F# / E / B F# / E

    B F#
    เริ่มละครเรื่องนี้ ยังสวยงาม

    G#m E F#
    ในทุกคำที่บอกรัก มันก็ยังฝังใจ โฮ...

    B F# G#m
    ในตอนสุดท้ายต้องพบเจอเรื่องเลวร้าย

    E F#
    จบยังไงก็ช้ำ


    *, **

    solo: Am / G#m / C#m/ F# / Eb / G#m / C#m / F# / F# /

    **

    B F#
    ใครหนึ่งคนยังทำทุกๆอย่าง

    G#m
    จบหนทางเพื่อเหนี่ยวรั้ง

    E F# B
    ไม่ให้เธอร่ำ...ลา
  • THAIGUITARFEVER.TH.GS
    Guest
  • 5 ส.ค.2550,13:03น.

    tune Eb
    เล่นคีย์ C
    intro
    C
    --------------------------0-------------------------------------------0-----------
    -------------0---1-----------------1------------------0----1---------------1----
    ---------0----------------------------------------0--------------------------------
    ------------------------------------------------------------------------------------
    ---3---------------------------------------3--------------------------------------
    -----------------------------------------------------------------------------------

    G
    --------------------------0-------------------------------------------0-----------
    -------------0---1-----------------1------------------0----1---------------1----
    ---------0----------------------------------------0--------------------------------
    ------------------------------------------------------------------------------------
    ---------------------------------------------------------------------------------
    ---3----------------------------------------3----------------------------------------

    Am
    --------------------------0-------------------------------------------0-----------
    -------------0---1-----------------1------------------0----1---------------1----
    ---------0----------------------------------------0--------------------------------
    ------------------------------------------------------------------------------------
    ---0---------------------------------------0--------------------------------------
    -----------------------------------------------------------------------------------

    G
    --------------------------0-------------------------------------------0-----------
    -------------0---1-----------------1------------------0----1---------------1----
    ---------0----------------------------------------0--------------------------------
    ------------------------------------------------------------------------------------
    --------------------------------------------------------------------------------
    ---3--------------------------------------3------------------------------------------

    ถูกต้องชัดเจน แค่นี้ก่อนขี้เกียจพิมพ์ ใครต้องการแท็ปเพลงใหม่ๆ เป็นไฟล์กีตาร์โปร 5
    ที่แกะโดยผมเองเข้าไปที่เว็ป THAIGUITARFEVER.TH.GS อัพเดทตลอด
  • ohmy
    Guest
  • 17 ก.พ.2551,11:30น.
    คอร์ดโคตมั่วเลยค๊าฟ  


    มานต้อง C (ยกนิ้วชี้ขึน) / G / Am / C / F /
    ((ขอคอร์ดกีต้าร์))
  • 22 ก.ย.2557,01:35น.
    C                    G                               AM                        F/G
    ใครหนึ่งคนก็ทำทุกๆอย่าง ทุกหนทางเพื่อเหนี่ยวรั้ง ไม่ต้องการร่ำลา 
    C                         G                     Am                        F/G
    ใครอีกคนก็สร้างปัญหา ทำทุกทางเพื่อจากลาอยากให้รักจบไป 
                 F                           Dm                              G
    *ทุกทางออกไม่ว่าเธอนั้นจะทนอยู่ หรือฉันยอมแพ้ให้รักเราจบมันก็ปวดหัวใจ
                                  C          Em   F              Dm                  G
    **ไม่มีทางไหนไม่ปวดร้าว อย่างไงก็เจ็บช้ำ ต่อให้ฉันจะพยายามสักแค่ไหน
                  E                    Am           Dm                 G            C 
    ฉันไม่หมดรัก เธอเองก็ยังอยากจากไป เหมือนไม่มีทางไหนที่ใจฉันไม่เจ็บ 
    
    (ดนตรี) C/G/F/C/G/F
    
    
    C                          G                      Am                   F/G
    เริ่มละครเรื่องนี้อย่างสวยงาม ในทุกคำที่บอกรักมันก็ยังฝังใจ 
    C            G                       Am                       F/G
    ในตอนสุดทางต้องพบเจอเรื่องเลวร้าย จบอย่างไงก็ช้ำ 
    
    (ซ้ำ */**)
    
    (ดนตรี) Bb/Am/Dm/G/E/Am/Dm/G/G
    
    
                              C           Em  F             Dm                  G
    ไม่มีทางไหนไม่ปวดร้าว อย่างไงก็เจ็บช้ำ ต่อให้ฉันจะพยายามสักแค่ไหน
                  E                   Am           Dm              
    ฉันไม่หมดรัก เธอเองก็ยังอยากจากไป ฉันไม่เหลือทางไหน
    G             E                     Am         Dm                    Dm      C 
    ถึงใจฉันจะรัก ใจเธอก็ยังต้องการจะไป เหมือนไม่มีทางไหนที่ฉันไม่ต้องเจ็บ
     C                    G                             Am                      F/G/C 
    ใครหนึ่งคนก็ทำทุกๆอย่าง ทุกหนทางเพื่อเหนี่ยวรั้ง ไม่ให้เธอร่ำลา
1

ขอเชิญร่วมแสดงความคิดเห็นครับ

คลิกที่รูป เพื่อแทรกรูปลงในข้อความ
  • Member :
    username
    password
  • Not a member :
    name
    email