Loading

คอร์ดเพลง เจ้าหญิงนิทรา

แคลช (Clash)

อัพโหลดคลิปเพลงนี้ที่คุณ ร้อง/เล่น ด้วยตัวคุณเอง ได้แล้ววันนี้
ระหว่างการทดสอบระบบหากพบข้อผิดพลาด กรุณาแจ้งที่นี่

>> อัลบั้ม : One
Intro : Bm/C#m/F#m/D/E/F#m

Bm C#m F#m
นั่งมองเธอเนิ่นนาน เห็นตาเธอพริ้มหลับ
D E F#m
สายลมคลอเคล้าแก้ม ที่อ่อนใส
Bm C#m F#m
ฉันกล้าอยู่ใกล้เธอ แค่ยามเธอหลับใหล
G E
แม้ใจจะรักเธอตลอดมา

Bm C#m F#m
* ใกล้กันแค่เอื้อมมือ เหมือนไกลกันแสนไกล
D E F#m
หัวใจไม่กล้าพอ จะไขว่คว้า
Bm C#m F#m
ได้มองเธอข้างเดียว ก็ดีใจหนักหนา
D E A
ถึงแม้เวลาจะไม่นาน

F#m C#m F#m C#m
** อย่าเพิ่งตื่นขึ้นมา ตอนนี้เลยเธอ ให้ฉันได้แอบมองเธอให้นาน
F#m C#7/F#m D E
ฉันขอเก็บภาพนี้ เอาไปนอนฝัน ให้ฉันนั้นได้แอบบอกรักเธอ

Bm C#m F#m D E F#m
*** ไม่กล้าจะสัมผัส ไม่กล้าจะรบกวน ได้เพียงอยู่ใกล้เธอ และเหมอมอง
Bm C#m F#m D E A
ได้ยินบ้างหรือเปล่า หัวใจมันร่ำร้อง ว่ามัน มันรักเธอเพียงใด

Instru : F#m/C#m/ (3times)
D/E

[ * , ** , *** ]

Bm C#m F#m
ได้ยินบ้างหรือเปล่า หัวใจมันร่ำร้อง
D E A
ว่ามัน มันรักเธอเพียงใด


ส่งเพลงนี้ให้เพื่อน
วันที่โพสต์ : 4 ม.ค.2546,17:33น.
จำนวนผู้ชม : 158051 คน / แสดงความคิดเห็น : 80 ครั้ง
โพสต์โดย


จาก: เว็บมาสซาเตอร์
เข้าร่วม: 9 ปีก่อน
เพลง: 0
โพสต์: 219
เพลงแนะนำ
เพลงฮิต
เลือกแสดงเฉพาะ :

  • tomman
    Guest
  • 16 ก.พ.2547,13:01น.
    เพราะมากๆๆ 
    ((อัพเดทแหล่งทดลองฟัง))
  • tomman
    Guest
  • 16 ก.พ.2547,13:01น.
    เพราะมากๆๆ 
    ((อัพเดทแหล่งทดลองฟัง))
  • @@@
    Guest
  • 29 ส.ค.2547,17:38น.
    ้@@@@@   
    ((อัพเดทแหล่งทดลองฟัง)) ((อัพเดทคอร์ดกีต้าร์)) ((ขอคอร์ดกีต้าร์))
  • tah
    Guest
  • 10 ก.ย.2547,09:03น.
    ขอ tab หน่อย
    ((อัพเดทแหล่งทดลองฟัง)) ((อัพเดทคอร์ดกีต้าร์)) ((ขอคอร์ดกีต้าร์))
  • krich
    Guest
  • 3 ต.ค.2547,18:45น.
    ผมชนะการร้องเพลงเพลงนี้เพราะเสียงเหมือน ขอบคุณ วงclash  
    ((อัพเดทแหล่งทดลองฟัง)) ((อัพเดทคอร์ดกีต้าร์)) ((ขอคอร์ดกีต้าร์))
  • มือกีต้าร์Angel
    Guest
  • 24 พ.ค.2548,21:51น.
    Intro:
    2]-----------------------------10------9-------------------------------------------------------------
    3]-----------------------------------------------11-------9-------7--------6-------7>9--->----11
    4]-------------9------11-----------------------------------------------------------------------------



    ลองดูนะจ๊ะ อาจารย์สอนมา
    ถ้าไม่ตรงก้อแก้ให้หน่อยนะคับ
  • ม้ะบอก อายย~ูู^^~
    Guest
  • 26 พ.ค.2548,01:45น.
    Intro:
    1)------------------------------------------------------------------------
    2)------------------10/12-----10----7----5-------------------12~-
    3)--------9/11-----------------------------------7----9/11----------

    น่าจะเปงหยั่งงี้น้าคับ /=Slide ~=Vibrato
  • Moon
    Guest
  • 3 ธ.ค.2548,14:48น.
    Intro:
    Bm7 C#m7 F#m
    1------------------------2-- -------------- ----
    2--3----------3------------ 5---------5-- 2--
    3--2------2---------------- 4------4----- 2--
    4------4------------4------ ----6--------- ----
    5--2----------------------- 4------------- 4--
    6---------------------------- -------------- ----

    enough
  • hh
    Guest
  • 6 มี.ค.2549,17:09น.
    >> เพลง : >> ศิลปิน :  
    >> อัลบั้ม : One
    Intro : Bm/C#m/F#m/D/E/F#m

    Bm C#m F#m
    นั่งมองเธอเนิ่นนาน เห็นตาเธอพริ้มหลับ
    D E F#m
    สายลมคลอเคล้าแก้ม ที่อ่อนใส
    Bm C#m F#m
    ฉันกล้าอยู่ใกล้เธอ แค่ยามเธอหลับใหล
    G E
    แม้ใจจะรักเธอตลอดมา

    Bm C#m F#m
    * ใกล้กันแค่เอื้อมมือ เหมือนไกลกันแสนไกล
    D E F#m
    หัวใจไม่กล้าพอ จะไขว่คว้า
    Bm C#m F#m
    ได้มองเธอข้างเดียว ก็ดีใจหนักหนา
    D E A
    ถึงแม้เวลาจะไม่นาน

    F#m C#m F#m C#m
    ** อย่าเพิ่งตื่นขึ้นมา ตอนนี้เลยเธอ ให้ฉันได้แอบมองเธอให้นาน
    F#m C#7/F#m D E
    ฉันขอเก็บภาพนี้ เอาไปนอนฝัน ให้ฉันนั้นได้แอบบอกรักเธอ

    Bm C#m F#m D E F#m
    *** ไม่กล้าจะสัมผัส ไม่กล้าจะรบกวน ได้เพียงอยู่ใกล้เธอ และเหมอมอง
    Bm C#m F#m D E A
    ได้ยินบ้างหรือเปล่า หัวใจมันร่ำร้อง ว่ามัน มันรักเธอเพียงใด

    Instru : F#m/C#m/ (3times)
    D/E

    [ * , ** , *** ]

    Bm C#m F#m
    ได้ยินบ้างหรือเปล่า หัวใจมันร่ำร้อง
    D E A
    ว่ามัน มันรักเธอเพียงใด
  • ภาคภูมิ Theguitarmac
    Guest
  • 11 พ.ค.2549,12:15น.
    น่าจะ
    1------------------------------------------------------------------------------------------------
    2-------------------------10--9------------------------------------------------------------------
    3--------------------9----------------11--9-------------------------------------------------------
    4-----------9/11-----------------------------12-11-12/14-------/16----------------------------------
    5---------------------------------------------------------------------------------------------
    6---------------------------------------------------------------------------------------------
  • ฮอลล์
    Guest
  • 12 พ.ค.2549,11:24น.
    ลองเอาsolo มาฝาก มีไม่หมดนะ ไม่ตรงก็ติชมด้วย
    3|--11^------ แล้วก็ไม่ได้แล้วข้ามมาท่อนนึง
    3|------------------12---12---12
    2|---------------------14---13----12--10--10-12-h10h9--7 ท่อนนี้ก็ไม่ได้ ข้ามนะ

    3|--------------9-11---------------11-9--
    2|--------------------10-12-10-9--------

    4|-----------9-7-------------7-5----
    3|--6h7h6--------4h5h4----------.
    2|--------------------------------------------------11-9-------------11-9---
    1|---------------------------------------9h10h9---------9h10h9--------12~~

    ไปลองดูเองนะว่าท่อนไหนบ้าง แต่น่าจะตรงบ้างแหละ
  • แน็คSWORD
    Guest
  • 23 พ.ย.2549,22:15น.
    แน็คSWORDคับ
    -โซงโล่ทีแท้จริงมาแล้ว--แกะมากับมือตรงเป๊เอาท่อนโซโล่ขึ้นไปก่อน
    อยากได้ทั้งหมดแอดมา-Nack_Sword2006hotmail.com
    สาย2--------10-9-------------------------------------
    สาย3------9-------11-9-------------------------------
    สาย4---11---------------12-11h12-12/14/16--
    อยากได้ก็แอดมาน่ะของดีมีเยอะ
  • ปอน
    Guest
  • 12 ธ.ค.2550,16:43น.


    หัดเล่นใหม่น่ะครับลองดูก็คล้ายๆอยู่น่ะแท๊ปนี้

    1:----2--4---5----2----2-----2 l---7~9---7---4---4-l--5----2----2-------------
    2:---------------------3----3-----l-------------------6---l----------3-----------------
    3:----------------------------------l------------------------l----------------------------
    4:----------------------------------l------------------------l----------------------------
    5:------------2--------------------l------------4----------l--2------------------------
    6:----------------------------------l------------------------l---------------------------

    1:--5-4-------------------l-----------------------------l----1~2----------------------------
    2:--------5------------0--l-----------------------------l--------------------------------------
    3:-----------4--2--1-----l--------------4~6---1-----l--------------------------------------
    4:--0---------------------l---6--4--2-------------2---l--------------2-----------------------
    5:-------------------------l------------------------------l----------------2---------------------
    6:-------------------------l------------------------------l----1~2---------2------------------

  • ปอน
    Guest
  • 12 ธ.ค.2550,16:46น.


    หัดเล่นใหม่น่ะครับลองดูก็คล้ายๆอยู่น่ะแท๊ปนี้

    1:----2--4---5----2----2-----2 l---7~9---7---4---4-l--5----2----2-------------
    2:---------------------3----3-----l------------------[5]---l----------3-----------------
    3:----------------------------------l------------------------l----------------------------
    4:----------------------------------l------------------------l----------------------------
    5:------------2--------------------l------------4----------l--2------------------------
    6:----------------------------------l------------------------l---------------------------

    1:--5-4-------------------l-----------------------------l----1~2----------------------------
    2:--------5------------0--l-----------------------------l--------------------------------------
    3:-----------4--2--1-----l--------------4~6---1-----l--------------------------------------
    4:--0---------------------l---6--4--2-------------2---l--------------2-----------------------
    5:-------------------------l------------------------------l----------------2---------------------
    6:-------------------------l------------------------------l----1~2---------2------------------

    แก้ครับผิดจาก[6]เปง[5]น่ะ

    ~ = สไลด์

1

ขอเชิญร่วมแสดงความคิดเห็นครับ

คลิกที่รูป เพื่อแทรกรูปลงในข้อความ
  • Member :
    username
    password
  • Not a member :
    name
    email