Loading

คอร์ดเพลง เท่าเดิม

ลาบานูน (Labanoon)

อัพโหลดคลิปเพลงนี้ที่คุณ ร้อง/เล่น ด้วยตัวคุณเอง ได้แล้ววันนี้
ระหว่างการทดสอบระบบหากพบข้อผิดพลาด กรุณาแจ้งที่นี่

Intro: A/A/A/F#m/D/E

A F#m

ฉันรู้ว่าเธอยังห่วงใย ฉันรู้ว่าใจเธอยังสั่น

D E

ฉันรู้ว่าเธอไม่ต้องการ ทำให้เรื่องของเราลงเอยแบบนี้

A F#m

ถึงแม้ว่ามันลำบากใจ เธอก็ต้องไปอยู่ดี

D E

รีบเช็ดน้ำตาที่เธอมี คิดเสียว่าจะเจอคนดีกว่าฉัน

D E A

* อย่าคิดกังวลอะไร เดินไปตาม ที่เธอฝัน

D E

** ฉันอยู่ตรงนี้ได้ ไม่ต้องเป็นห่วงกัน

A F#m

เมื่อก่อนไม่มีใคร ฉันก็เคยผ่านมา

D E

เธอ.. พบคนที่ใช่ ก็ไปดีเถิดหนา

A F#m

อาจเจ็บอีกนาน แต่ว่าฉันคงไม่เป็นไร

Bm E A F#m

เคยมีตัวคนเดียว ก็แค่มีเท่าเดิม ก็แค่ไม่เหลือใคร

A F#m

คนเราจะมีสักกี่ครั้ง ได้เดินบนทางที่ตรงใจ

D E

เธอเจอมันแล้วก็ก้าวไป เธอเลือกได้อะไรที่ดีกว่ากัน



( *,** )



F#m D A

โวว.. เปลี่ยนใจเธอไม่ได้ ไม่ฝืนใจกัน ก็ทิ้งกันไป เย..

F#m D A

อาจทำใจได้ยาก คงไม่เป็นไร แค่เสียเธอไป โอ.. โว..



F#m/D/A/A (2 Times)



( ** )

Outro: A/A





ส่งเพลงนี้ให้เพื่อน
วันที่โพสต์ : 22 พ.ย.2548,22:50น. 158.108.132.167
จำนวนผู้ชม : 492496 คน / แสดงความคิดเห็น : 185 ครั้ง
โพสต์โดย


จาก: Detectiveoat13
เข้าร่วม: 9 ปีก่อน
เพลง: 0
โพสต์: 3
เพลงแนะนำ
เพลงฮิต
เลือกแสดงเฉพาะ :

  • mOo`Bank
    Guest
  • 7 ม.ค.2549,21:03น.
    Intro :
    
    1|---12~~------------7s12-12~-12s14p12------12~~----------------------------
    2|------------------------------------------------------------------------------15-15-s23--
    3|-------------14-14--------------------------------14------------13-13------------------
  • mOo`Bank
    Guest
  • 7 ม.ค.2549,21:03น.
    Intro :
    1|---12~~------------7s12-12~-12s14p12------12~~----------------------------
    2|------------------------------------------------------------------------------15-15-s23--
    3|-------------14-14--------------------------------14------------13-13------------------
  • mOo`Bank
    Guest
  • 7 ม.ค.2549,21:09น.
    Solo: หลังจบท่อนฮุคครั้งแรก
    1|---12~~-----------------12s14p12-12-----s17--
    2|-----------------------------------------------------------
    3|-------------14-14--14---------------------------------
  • เกม
    Guest
  • 2 เม.ย.2549,15:24น.
    ----------ขอ tab  เเบบทั้งเพลงเลยน๊า-------------
  • กัน [BD]
    Guest
  • 12 พ.ย.2549,09:53น.
    ขอ solo ท่อนหลังหน่อยๆๆๆ  ----------------ขอ solo --------------------------


  • โอโต้
    Guest
  • 27 มิ.ย.2550,14:26น.
    เท่าเดิม 
    Artist : ลาบานูน (Labanoon)

    Intro: A/A/E/D

    A F#m
    ฉันรู้ว่าเธอยังห่วงใย ฉันรู้ว่าใจเธอยังสั่น
    D E
    ฉันรู้ว่าเธอไม่ต้องการ ทำให้เรื่องของเราลงเอยแบบนี้
    A F#m
    ถึงแม้ว่ามันลำบากใจ เธอก็ต้องไปอยู่ดี
    D E
    รีบเช็ดน้ำตาที่เธอมี คิดเสียว่าจะเจอคนดีกว่าฉัน
    D E A
    * อย่าคิดกังวลอะไร เดินไปตาม ที่เธอฝัน
    D E
    ** ฉันอยู่ตรงนี้ได้ ไม่ต้องเป็นห่วงกัน
    A F#m
    เมื่อก่อนไม่มีใคร ฉันก็เคยผ่านมา
    D E
    เธอ.. พบคนที่ใช่ ก็ไปดีเถิดหนา
    A F#m
    อาจเจ็บอีกนาน แต่ว่าฉันคงไม่เป็นไร
    Bm E A (A)
    เคยมีตัวคนเดียว ก็แค่มีเท่าเดิม ก็แค่ไม่เหลือใคร

    A F#m
    คนเราจะมีสักกี่ครั้ง ได้เดินบนทางที่ตรงใจ
    D E
    เธอเจอมันแล้วก็ก้าวไป เธอเลือกได้อะไรที่ดีกว่ากัน

    ( *,** )

    A F#m D A
    โวว.. เปลี่ยนใจเธอไม่ได้ ไม่ฝืนใจกัน ก็ทิ้งกันไป เย..
    F#m D A
    อาจทำใจได้ยาก คงไม่เป็นไร แค่เสียเธอไป

    F#m/D/A/A (2 Times)
    โอ..โว
    ( ** )
    Outro: A/A

    ของแท้มาแล้วครับ ลองเล่นดูนะรับลองตรงชัวว์ 100%
1

ขอเชิญร่วมแสดงความคิดเห็นครับ

คลิกที่รูป เพื่อแทรกรูปลงในข้อความ
  • Member :
    username
    password
  • Not a member :
    name
    email