Loading

คอร์ดเพลง เพียงพอ

โปเตโต้ (Potato)

อัพโหลดคลิปเพลงนี้ที่คุณ ร้อง/เล่น ด้วยตัวคุณเอง ได้แล้ววันนี้
ระหว่างการทดสอบระบบหากพบข้อผิดพลาด กรุณาแจ้งที่นี่
ที่มีก็ดูว่าน้อยอะไรได้มาก็ยังไม่ค่อยพอใจ...
**ฉันอาจจะเป็นอย่างนั้นกำลังแข่งขันแก่งแย่งชิงกันไป
แต่เหตุที่ฉันไม่เป็นอย่างใคร
บังเอิญว่าฉันมีเธอก็เลยไม่เคยต้องการไขวขว้าอะไร
ไม่ดิ้นให้ทรมานหวั่นไหวไม่หยุดและมั่นคงกว่าเดิม
ตั้งแต่ที่ฉันมีเธอก็รู้ว่าความต้องการหมดแล้วไม่มี
ไม่ต้องทเยอทยานแค่นี้ก็สุข...
ทุกวันที่มี...เธอ..ฉัน..ยังไงก็เพียงพอ....

ชีวิตบางคนดิ้นจนเกินคำว่าพอดี
เพราะมั่วแต่มองที่หมายไปไกล
ไม่เคยจะมองค้นหาข้างกาย...

มีให้ฟังกันนะ http://www.upload.th.md/download.php?id=7D42A397
กบดุ
ดาวน์โหลด Full Song
กด *424243082676584
กด *424243082676584
ดาวน์โหลด Truetone
กด *424218082676584
กด *424218082676584
กด *424218082676584
ดาวน์โหลด Poly
กด *424214082676584
กด *424214082676584
กด *424214082676584
ดาวน์โหลด Mono
กด *424211082676584
กด *424211082676584
กด *424211082676584
* อัตราค่าบริการดาวน์โหลด Fullsong, Truetone, Poly, Mono : 35 บาท/เพลง
ส่งเพลงนี้ให้เพื่อน
วันที่โพสต์ : 1 ม.ค.2550,15:50น. 58.147.70.72
จำนวนผู้ชม : 253158 คน / แสดงความคิดเห็น : 265 ครั้ง
โพสต์โดย


จาก: ???
เข้าร่วม: 8 ปีก่อน
เพลง: 0
โพสต์: 2
เพลงแนะนำ
เพลงฮิต
เลือกแสดงเฉพาะ :

  • เอ็ม 23215
    Guest
  • 1 ม.ค.2550,20:29น.
    intro พาวเวอร์คอร์ด  csus2/A
    

    E A
    ชีวิตบางคนดิ้นรนจนเกินคำว่าพอดี
    F G
    ที่มีก็ดูว่าน้อยอะไร ได้มาก็ยังไม่ค่อยพอใจ
    E A D
    *ฉันอาจจะเป็นอย่างนั้นกำลังแข่งขัน แก่งแย่งชิงกันไป
    F#m
    แต่เหตุที่ฉันไม่เป็นอย่างใคร
    Csus2 F#m
    **บังเอิญว่าฉันมีเธอก็เลยไม่เคยต้องการไขวขว้าอะไร
    A Dsus2
    ไม่ดิ้นให้ทรมานหวั่นไหวไม่หยุดและมั่นคงกว่าเดิม
    Csus2 F#m
    ตั้งแต่ที่ฉันมีเธอก็รู้ว่าความต้องการหมดแล้วไม่มี
    A
    ไม่ต้องทเยอทยานแค่นี้ก็สุข...
    Dsus2 G
    ทุกวันที่มี...เธอ..ฉัน..ยังไงก็เพียงพอ....



    E A
    ชีวิตบางคนวิ่งวนจนเกินคำว่าพอดี
    F D
    เพราะมั่วแต่มองที่หมายไปไกล
    G
    ไม่เคยจะมองค้นหาข้างกาย...

    *
    solo csus2/A


    * *
    outtro csus2/A

    ลองดูครับ ถ้าผิดก็ชี้แนะด้วย ไม่ค่อยมีเวลาอะครับได้แค่นี้
  • เอ็ม 23215
    Guest
  • 1 ม.ค.2550,20:29น.
    intro พาวเวอร์คอร์ด  csus2/A

    E A
    ชีวิตบางคนดิ้นรนจนเกินคำว่าพอดี
    F G
    ที่มีก็ดูว่าน้อยอะไร ได้มาก็ยังไม่ค่อยพอใจ
    E A D
    *ฉันอาจจะเป็นอย่างนั้นกำลังแข่งขัน แก่งแย่งชิงกันไป
    F#m
    แต่เหตุที่ฉันไม่เป็นอย่างใคร
    Csus2 F#m
    **บังเอิญว่าฉันมีเธอก็เลยไม่เคยต้องการไขวขว้าอะไร
    A Dsus2
    ไม่ดิ้นให้ทรมานหวั่นไหวไม่หยุดและมั่นคงกว่าเดิม
    Csus2 F#m
    ตั้งแต่ที่ฉันมีเธอก็รู้ว่าความต้องการหมดแล้วไม่มี
    A
    ไม่ต้องทเยอทยานแค่นี้ก็สุข...
    Dsus2 G
    ทุกวันที่มี...เธอ..ฉัน..ยังไงก็เพียงพอ....



    E A
    ชีวิตบางคนวิ่งวนจนเกินคำว่าพอดี
    F D
    เพราะมั่วแต่มองที่หมายไปไกล
    G
    ไม่เคยจะมองค้นหาข้างกาย...

    *
    solo csus2/A


    * *
    outtro csus2/A

    ลองดูครับ ถ้าผิดก็ชี้แนะด้วย ไม่ค่อยมีเวลาอะครับได้แค่นี้
  • PuppyDiCK
    Guest
  • 2 ม.ค.2550,10:43น.
    ป๋มว่าคอร์ดที่หั้ยมาคีย์มันจาต่ำไปป่าวอะ -_- a

    ป๋มว่าน่าจาเปงงี้มากก่าอะ>>>>>



    C F
    ชีวิตบางคนดิ้นรนจนเกินคำว่าพอดี
    C F
    ที่มีก็ดูว่าน้อยอะไร ได้มาก็ยังไม่ค่อยพอใจ
    Dm F C G
    *ฉันอาจจะเป็นอย่างนั้นกำลังแข่งขัน แก่งแย่งชิงกันไป
    Dm F G
    แต่เหตุที่ฉันไม่เป็นอย่างใคร
    C F
    **บังเอิญว่าฉันมีเธอก็เลยไม่เคยต้องการไขวขว้าอะไร
    Dm F G
    ไม่ดิ้นให้ทรมานหวั่นไหวไม่หยุด และมั่นคงกว่าดิม
    C F
    ตั้งแต่ที่ฉันมีเธอก็รู้ว่าความต้องการหมดแล้วไม่มี
    Dm F
    ไม่ต้องทเยอทยานแค่นี้ก็สุข...
    G C
    ทุกวันที่มี...เธอ..ฉัน..ยังไงก็เพียงพอ....



    C F
    ชีวิตบางคนวิ่งวนจนเกินคำว่าพอดี
    C
    เพราะมัวแต่มองที่หมายไปไกล
    F
    ไม่เคยจะมองค้นหาข้างกาย...



  • สมาชิกวงbutala
    Guest
  • 17 ม.ค.2550,19:50น.

    55555555+introคับ น่าจะอยู่key G คับ

    3/-----5--7--5------5--4----------
    4/-----x--x---x------x--x---------
    5/-----3--5--3------3--2---------
    6/------------------------------------

    soloเล่นเหมือนกันคับ

  • BB
    Guest
  • 19 ม.ค.2550,10:19น.
    www.ikeyclub.com  เปนทางเลือกที่ดี สำหรับคนชอบโหลดเพลง ถือว่าช่วยๆศิลปิน เถอะคะ ขอประนามไอพวกที่เอามาให้โหลดฟรีๆ 
    พวกคนเลวพวกนี้ มัน เอาหัวสมองคนอื่น มา เหยียบย่ำเล่นๆ กว่าเพลง1เพลง จะออกมาได้ พวกมันไม่รู้หรอกว่า มันยากขนาดไหน คุณโหลดกัน ไม่ถึงนาที ก้ได้ฟังกันแล้ว
    สังคมไทยจะไม่เจริญ ก้เพราะพวกมันแหละ

    C D C D
  • Baby_Freaky
    Guest
  • 20 ม.ค.2550,19:37น.

    Intro B

    1 ---------------------------------------------------------------------------
    2 ---------------------------------------------------------------------------
    3 ------------4--x--6--x--4--x---4---x---3-----------------------------
    4 ------------4--x--4--x--4--x---4---x---4------------------------------
    5 ---2-2-----2--x--2--x--2--x---2--x---2------------------------------
    6 ---------------------------------------------------------------------------
    * *
    E

    1 ---------------------------------------------------------------------------
    2 ---------------------------------------------------------------------------
    3 ---------------------------------------------4---x----3------------------
    4 ---------------2---x---4---x----2---x----4---x----4------------------
    5 ---------------2---x---2---x----2---x----2---x----2------------------
    6 ---0---0-----0---x---0---x----0---x----0---x----0-------------------
    * *
    ได้แค่นี้แหละ...ใครฟังท่อนฮุคออกก็ช่;ยแกะทีครับ Thank
  • vin arsenic
    Guest
  • 21 ม.ค.2550,14:03น.

    เรียบเรียงให้คับ

    เพียงพอ
    ศิลปิน : โปเตโต้ (Potato)

    intro: B/E [3 times]
    ------------------------------------------------
    F# C# F# B Bb / F# C# F# B Bb
    E F# E B Bb / E F# E B Bb [3 times]
    ------------------------------------------------
    B
    3 ------------4--x--6--x--4--x---4---x---3-----------------------------
    4 ------------4--x--4--x--4--x---4---x---4------------------------------
    5 ---2-2-----2--x--2--x--2--x---2--x---2------------------------------
    6 ---------------------------------------------------------------------------

    E
    3 ---------------------------------------------4---x----3------------------
    4 ---------------2---x---4---x----2---x----4---x----4------------------
    5 ---------------2---x---2---x----2---x----2---x----2------------------
    6 ---0---0-----0---x---0---x----0---x----0---x----0-------------------

    B E
    ชีวิตบางคนดิ้นรนจนเกินคำว่าพอดี
    B E
    ที่มีก็ดูว่าน้อยอะไร ได้มาก็ยังไม่ค่อยพอใจ

    C#m E B G#m
    *ฉันอาจจะเป็นอย่างนั้นกำลังแข่งขัน แก่งแย่งชิงกันไป
    C#m E F#
    แต่เหตุที่ฉันไม่เป็นอย่างใคร

    B E
    **บังเอิญว่าฉันมีเธอก็เลยไม่เคยต้องการไขวขว้าอะไร
    C#m E F#m
    ไม่ดิ้นให้ทรมานหวั่นไหวไม่หยุดและมั่นคงกว่าดิม
    B E
    ตั้งแต่ที่ฉันมีเธอก็รู้ว่าความต้องการหมดแล้วไม่มี
    C#m E
    ไม่ต้องทเยอทยานแค่นี้ก็สุข...
    F#m B
    ทุกวันที่มี...เธอ..ฉัน..ยังไงก็เพียงพอ....

    solo: B/E
    -----------------------------------------------
    F# C# F# B Bb / F# C# F# B Bb
    E F# E B Bb / E F# E B Bb
    -----------------------------------------------
    B E
    ชีวิตบางคนวิ่งวนจนเกินคำว่าพอดี
    B
    เพราะมั่วแต่มองที่หมายไปไกล
    E
    ไม่เคยจะมองค้นหาข้างกาย...

    (*,**)

    solo: G#/E/G#/F#
    G#/E/F#
    B/E/B/E
    ----------------------------------------------
    F# C# F# B Bb / F# C# F# B Bb
    E F# E B Bb / E F# E B Bb
    ----------------------------------------------
    (*,**)

  • Deadthrone
    Guest
  • 23 ม.ค.2550,18:32น.
    มัยของผมออกคี G เนี้ย ช่วยติด้วยครับ เพลงที่ 2 ในชีวิตที่แกะได้ แต่ก็นิดหน่อย

    G
    4--------7---------5--4--------
    5---5---5----5--- 3--2------------
    6---3------- 3-----------------
    วน 2 รอบ

    C
    4-----------------5---4-----
    5---3--5--3-----3---2---------------------
    6---1--3--1-----------------------------
    วนสองรอบ

    เล่นหมดนี่ 3รอบครับ


    G C
    ชีวิตบางคนดิ้นรนจนเกินคำว่าพอดี
    G C
    ที่มีก็ดูว่าน้อยอะไร ได้มาก็ยังไม่ค่อยพอใจ

    C Am
    *ฉันอาจจะเป็นอย่างนั้นกำลังแข่งขัน แก่งแย่งชิงกันไป
    F D
    แต่เหตุที่ฉันไม่เป็นอย่างใคร

    G Em
    **บังเอิญว่าฉันมีเธอก็เลยไม่เคยต้องการไขวขว้าอะไร
    C D
    ไม่ดิ้นให้ทรมานหวั่นไหวให้หยุดและมั่นคงกว่าเดิม
    G Em
    ตั้งแต่ที่ฉันมีเธอก็รู้ว่าความต้องการหมดแล้วไม่มี
    C
    ไม่ต้องทเยอทยานแค่นี้ก็สุข...
    D G
    อยู่ทุกวันแค่มี...เธอ..ฉัน..ยังไงก็เพียงพอ....

    solo: /G/C/

    G C
    ชีวิตบางคนวิ่งวนจนไม่เจอคำว่าพอดี
    G
    เพราะมั่วแต่มองที่หมายไกลไกล
    C
    ไม่เคยจะลองค้นหาข้างกาย...

    (*,**)
    /G/C/G/C/G/C/G/
    เล่นเหมืออินโทรแต่ 2ชุดใหญ่
    (*,**)

    ช่วยติด้วยครับ ผมอยากเก่งขึ้นอะครับ อยากแกะเพลงเก่งโดยไม่ต้องดูของคนอื่นประกอบ
    ขอบคุณสำหรับคำแนะนำและติชมด้วยครับ


  • อิกคิว วง In no sense (กีต้าร์)
    Guest
  • 14 ก.พ.2550,11:59น.

    เพียงพอ potato
    intro: C/F (3 times)
    Intro C

    1 ---------------------------------------------------------------------------
    2 ---------------------------------------------------------------------------
    3 ------------5--x--7--x--5--x---5---x---4-----------------------------
    4 ------------5--x--5--x--5--x---5---x---5------------------------------
    5 ---3-3-----3--x--3--x--3--x---3---x---3------------------------------
    6 ---------------------------------------------------------------------------
    * *
    F

    1 ---------------------------------------------------------------------------
    2 ---------------------------------------------------------------------------
    3 ------------------------------------------5---x----4------------------
    4 ---------------3---x---5---x----3---x----5---x----5------------------
    5 ---------------3---x---3---x----3---x----3---x----3------------------
    6 ---1---1------1---x---1----x----1---x----1---x----1--------------

    (*,**)


    C F
    ชีวิตบางคนดิ้นรนจนเกินคำว่าพอดี
    C F
    ที่มีก็ดูว่าน้อยอะไร ได้มาก็ยังไม่ค่อยพอใจ

    Dm F C A
    *ฉันอาจจะเป็นอย่างนั้นกำลังแข่งขัน แก่งแย่งชิงกันไป
    Dm F G
    แต่เหตุที่ฉันไม่เป็นอย่างใคร
    C F
    **บังเอิญว่าฉันมีเธอก็เลยไม่เคยต้องการไขวขว้าอะไร
    Dm F G
    ไม่ดิ้นให้ทรมานหวั่นไหวให้หยุดและมั่นคงกว่าเดิม
    C F
    ตั้งแต่ที่ฉันมีเธอก็รู้ว่าความต้องการหมดแล้วไม่มี
    Dm F
    ไม่ต้องทเยอทยานแค่นี้ก็สุข...
    G C
    อยู่ทุกวันแค่มี...เธอ..ฉัน..ยังไงก็เพียงพอ....

    solo: C/F


    C F
    ชีวิตบางคนวิ่งวนจนไม่เจอคำว่าพอดี
    C
    เพราะมั่วแต่มองที่หมายไกลไกล
    F
    ไม่เคยจะลองค้นหาข้างกาย...

    (*,**)

    solo: A/F/A/G/A/F/G
    C/F/C/F

    อันนี้ตรงมากกกกกกกกกกกกก เพราะตั้งใจทำคับ
  • gao
    Guest
  • 17 ก.พ.2550,11:27น.

    ขอแทบเบสสสว้4อย
    C
    G----
    D----
    A----3--3
    E----
    ((ขอคอร์ดกีต้าร์))
  • GaG
    Guest
  • 1 มี.ค.2550,20:47น.

    ดรอปสายลงครึ่งหนึ่งคัฟ
    ก่อนท่อนฮุก
    2---------12-------11---------12---------11----12
    3--------------11---------11--------11------------------11
    ตรงท่อนฮุก
    4----------s4--1--2--1------
    5---------------------------2--
  • [O]a[s]i[Z]
    Guest
  • 8 มี.ค.2550,13:33น.
    แก้ไขนิดหน่อยคับ F#m เป็น F#
    เพียงพอ - PoTaTo
    intro: B/E (3 times)

    B E
    ชีวิตบางคนดิ้นรนจนเกินคำว่าพอดี
    B E
    ที่มีก็ดูว่าน้อยอะไร ได้มาก็ยังไม่ค่อยพอใจ
    C#m E B G#m
    *ฉันอาจจะเป็นอย่างนั้นกำลังแข่งขัน แก่งแย่งชิงกันไป
    C#m E F#
    แต่เหตุที่ฉันไม่เป็นอย่างใคร
    B E
    **บังเอิญว่าฉันมีเธอก็เลยไม่เคยต้องการไขวขว้าอะไร
    C#m E F#
    ไม่ดิ้นให้ทรมานหวั่นไหวไม่หยุดและมั่นคงกว่าดิม
    B E
    ตั้งแต่ที่ฉันมีเธอก็รู้ว่าความต้องการหมดแล้วไม่มี
    C#m E
    ไม่ต้องทเยอทยานแค่นี้ก็สุข...
    F# B
    ทุกวันที่มี...เธอ..ฉัน..ยังไงก็เพียงพอ....

    solo: B/E

    B E
    ชีวิตบางคนวิ่งวนจนเกินคำว่าพอดี
    B
    เพราะมั่วแต่มองที่หมายไปไกล
    E
    ไม่เคยจะมองค้นหาข้างกาย...

    (*,**)

    solo: G#/E/G#/F#/G#/E/F#
    B/E/B/E

    (*,**)
  • เป็ดนิ้วปีศาจ
    Guest
  • 8 มี.ค.2550,13:43น.
    เพลง นี้ ต้องจูนเป็น Eb-Ab-Db-Gb-Bb-Eb
    เพราะจะทำให้คอร์ด เล่นง่ายขึ้น
    เช่นจาก B มาเป็นC และ F#มาเป็นG
    ง่ายขยับเข้าหาตัว1ช่อง
  • ...
    Guest
  • 8 มี.ค.2550,14:54น.

    เพียงพอ potato
    intro: C/F (3 times)
    Intro C
    1 ---------------------------------------------------------------------------
    2 ---------------------------------------------------------------------------
    3 ------------5--x--7--x--5--x---5---x---4-----------------------------
    4 ------------5--x--5--x--5--x---5---x---5------------------------------
    5 ---3-3-----3--x--3--x--3--x---3---x---3------------------------------
    6 ---------------------------------------------------------------------------
    * *
    F
    1 ---------------------------------------------------------------------------
    2 ---------------------------------------------------------------------------
    3 ------------------------------------------5---x----4------------------
    4 ---------------3---x---5---x----3---x----5---x----5------------------
    5 ---------------3---x---3---x----3---x----3---x----3------------------
    6 ---1---1------1---x---1----x----1---x----1---x----1--------------

    ดรอปสายลงครึ่งหนึ่งคัฟ
    ก่อนท่อนฮุก
    2---------12-------11---------12---------11----12
    3--------------11---------11--------11------------------11
    ตรงท่อนฮุก
    4----------s4--1--2--1------
    5---------------------------2--

    C F
    ชีวิตบางคนดิ้นรนจนเกินคำว่าพอดี
    C F
    ที่มีก็ดูว่าน้อยอะไร ได้มาก็ยังไม่ค่อยพอใจ
    Dm F C A
    *ฉันอาจจะเป็นอย่างนั้นกำลังแข่งขัน แก่งแย่งชิงกันไป
    Dm F G
    แต่เหตุที่ฉันไม่เป็นอย่างใคร
    C F
    **บังเอิญว่าฉันมีเธอก็เลยไม่เคยต้องการไขวขว้าอะไร
    Dm F G
    ไม่ดิ้นให้ทรมานหวั่นไหวให้หยุดและมั่นคงกว่าเดิม
    C F
    ตั้งแต่ที่ฉันมีเธอก็รู้ว่าความต้องการหมดแล้วไม่มี
    Dm F
    ไม่ต้องทเยอทยานแค่นี้ก็สุข...
    G C
    อยู่ทุกวันแค่มี...เธอ..ฉัน..ยังไงก็เพียงพอ....
    Solo: C/F
    C F
    ชีวิตบางคนวิ่งวนจนไม่เจอคำว่าพอดี
    C
    เพราะมั่วแต่มองที่หมายไกลไกล
    F
    ไม่เคยจะลองค้นหาข้างกาย... (*,**)

    Solo: A/F/A/G/A/F/G
    C/F/C/F (*,**)
  • ยิ้ง
    Guest
  • 17 มี.ค.2550,12:40น.

    จิงๆแล้วเพลงนี้มันก็อยู่คีย์ B นะครับ ท่านที่แกะไว้เป็นคีย์B ถูกต้องแล้วครับ

    ช่วงIntro ผมว่าเป็นงี้จะแน่นกว่านะ
    1 ---------------------------------------------------------------
    2 ---------------------------------------------------------------
    3 ---x--x----4---6---4---4---3------------------------------
    4 ---x--x----4---4---4---4---4------------------------------
    5 ---x--x----2---2---2---2---2------------------------------
    6 ---------------------------------------------------------------

    ส่วนอีกอันนึง
    1 -------------------------------------------------------
    2 -------------------------------------------------------
    3 ------------------------------4----3-----------------
    4 ---x--x------2----4----2---4---3------------------
    5 ---x--x------2----4----2---2---1------------------
    6 ---x--x------0----2----0---------------------------

    เพราะถ้าคุณเล่นเป็น
    1 ---------------------------------------------------------------------------
    2 ---------------------------------------------------------------------------
    3 ---------------------------------------------4---x----3------------------
    4 ---------------2---x---4---x----2---x----4---x----4------------------
    5 ---------------2---x---2---x----2---x----2---x----2------------------
    6 ---0---0-----0---x---0---x----0---x----0---x----0------------------- ยังงี้
    คุณจะฟังไม่รู้เรื่องเพราะระดับเสียงมันต่ำเกินไปนะครับ
    มันจะจมนะสำหรับความคิดผม

    ผมว่าที่ผมแกะน่าจะเป็นทางเลือกอีกทางเลือกนึงนะครับ

    นานาจิตตัง ยังไงๆก็ช่วยๆกันแกะนะครับ
  • ยิ้ง
    Guest
  • 17 มี.ค.2550,12:46น.

    ช่วงIntro ผมว่าเป็นงี้จะแน่นกว่านะ
    1 ---------------------------------------------------------------
    2 ---------------------------------------------------------------
    3 ---x--x----4---6---4---4---3------------------------------
    4 ---x--x----4---4---4---4---4------------------------------
    5 ---x--x----2---2---2---2---2------------------------------
    6 ---------------------------------------------------------------

    ส่วนอีกอันนึง
    1 -------------------------------------------------------
    2 -------------------------------------------------------
    3 ------------------------------4----3-----------------
    4 ---x--x------2----4----2---4---4------------------
    5 ---x--x------2----4----2---2---2------------------
    6 ---x--x------0----2----0---------------------------

    แก้หน่อยคับ ^^"
  • PoNd
    Guest
  • 19 มี.ค.2550,20:40น.

    Into

    3-----------4----6----4----4----2----------------------
    4----x-----4----4----4----4----4----------------------
    5----x-----2----2----2----2----2----------------------
    6----x-----x----x-----x---------------------------------



    3----------------------4----3----3----------------------
    4----x----x-----4----4----4----4----------------------
    5----2----2----2----2-----2---2-----------------------
    6----x----x----x-----------------------------------------
  • Arakas
    Guest
  • 20 มี.ค.2550,15:35น.

    ของจริงคับ100%

    2/----------------------------
    3/---5---7---5---5---4----
    4/---5---5---5---5---5----2รอบ
    5/---3---3---3---3---3----
    6/---------------------------

    3/---3---3---3---5---4---
    4/---3---5---3---5---5---2รอบ
    5/---3---3---3---3---3---
    6/---------------------------


  • Jan.FireExit
    Guest
  • 7 เม.ย.2550,00:15น.

    ผมดรอป D ที่สาย 6 นะครับ ส่วนที่เอามาลง เป็น คีย์ C ถ้า จะเล่น B ก็เลื่อนเอาตามบายครับ
    ส่วนซ้ำก็ดูๆเอาครับผมขี้เกียจเขียนยาวอ่ะ

    1|--------------------------------------------------
    2|--------------------------------------------------
    3|---------------7------5---4----------------7--------5----4-------
    4|----x--x--5--5--5--5---5--------x--5---5---5---5-----5--------
    5|----x--x--3------3----------------x--3--------3-------
    6|--------------------------------------------------


    1|--------------------------------------------------
    2|-------------------------------------------------- H
    3|----------------------5--4--------------------5--4---5--
    4|----x--x--3--5--3---------x--x--3--5--3--------------------
    5|----x--x--3--3--3---------x--x--3--3--3-----------------
    6|----x--x--3--3--3---------x--x--3--3--3------------------

    ถูกม่ายถูกก็ลองดูก่อนล่ะกันครับ
  • กระหน่ำศักดิ์
    Guest
  • 24 เม.ย.2550,06:23น.
    Intro:  B / B / E / E ( 2 times )
    B E
    ชีวิตบางคนดิ้นรนจนเกินคำว่าพอดี

    B E
    ที่มีก็ดูว่าน้อยอะไร ได้มาก็ยังไม่ค่อยพอใจ

    C#m E B G#m
    *ฉันอาจจะเป็นอย่างนั้นกำลังแข่งขัน แก่งแย่งชิงกันไป

    C#m E F#
    แต่เหตุที่ฉันไม่เป็นอย่างใคร

    B E
    **บังเอิญว่าฉันมีเธอ ก็เลยไม่เคยต้องการไขวขว้าอะไร

    C#m E F#
    ไม่ดิ้นให้ทรมานหวั่นไหว ไม่หยุด และมั่นคงกว่าดิม

    B E
    ตั้งแต่ที่ฉันมีเธอ ก็รู้ว่าความต้องการหมดแล้วไม่มี

    C#m E
    ไม่ต้องทเยอทยานแค่นี้ ก็สุข...

    F#m
    ทุกวันที่มี...เธอ..ฉัน..ยังไงก็เพียงพอ....


    Intro: B / B / E / E


    B E
    ชีวิตบางคนวิ่งวนไม่เจอคำว่าพอดี

    B
    เพราะมั่วแต่มองที่หมายไปไกล

    E
    ไม่เคยจะมองค้นหาข้างกาย...

    [ * ] [ * * ]

    Interlude : G#m / E / G#m / F# / G#m / E / G#m / F#7

    Intro: B / B / E / E ( 2 times )

    [ * ] [ * * ]

    Outtro : B
  • Tae' Tuxedo
    Guest
  • 24 เม.ย.2550,13:57น.

    มันอยู่ในคีย์ C ชัวร์ครับ เล่นมาแล้วตรงมากๆ

    เพียงพอ potato
    intro: C/F (3 times)
    Intro C

    1 ---------------------------------------------------------------------------
    2 ---------------------------------------------------------------------------
    3 ------------5--x--7--x--5--x---5---x---4-----------------------------
    4 ------------5--x--5--x--5--x---5---x---5------------------------------
    5 ------------3--x--3--x--3--x---3---x---3------------------------------
    6 ---------------------------------------------------------------------------
    * *
    F

    1 ---------------------------------------------------------------------------
    2 ---------------------------------------------------------------------------
    3 --------------------------------------------5---x----4------------------
    4 ---------------3---x---5---x----3---x----5---x----5------------------
    5 ---------------3---x---3---x----3---x----3---x----3------------------
    6 ---1---1------1---x---1----x----1---x----1---x----1--------------

    (*,**)


    C F
    ชีวิตบางคนดิ้นรนจนเกินคำว่าพอดี
    C F
    ที่มีก็ดูว่าน้อยอะไร ได้มาก็ยังไม่ค่อยพอใจ

    Dm F C A
    *ฉันอาจจะเป็นอย่างนั้นกำลังแข่งขัน แก่งแย่งชิงกันไป
    Dm F G
    แต่เหตุที่ฉันไม่เป็นอย่างใคร
    C F
    **บังเอิญว่าฉันมีเธอก็เลยไม่เคยต้องการไขวขว้าอะไร
    Dm F G
    ไม่ดิ้นให้ทรมานหวั่นไหวให้หยุดและมั่นคงกว่าเดิม
    C F
    ตั้งแต่ที่ฉันมีเธอก็รู้ว่าความต้องการหมดแล้วไม่มี
    Dm F
    ไม่ต้องทเยอทยานแค่นี้ก็สุข...
    G C
    อยู่ทุกวันแค่มี...เธอ..ฉัน..ยังไงก็เพียงพอ....

    solo: C/F


    C F
    ชีวิตบางคนวิ่งวนจนไม่เจอคำว่าพอดี
    C
    เพราะมั่วแต่มองที่หมายไกลไกล
    F
    ไม่เคยจะลองค้นหาข้างกาย...

    (*,**)

    solo: A/F/A/G/A/F/G
    C/F/C/F
1

ขอเชิญร่วมแสดงความคิดเห็นครับ

คลิกที่รูป เพื่อแทรกรูปลงในข้อความ
  • Member :
    username
    password
  • Not a member :
    name
    email