Loading

คอร์ดเพลง เลี้ยงส่ง

โซลคูล

อัพโหลดคลิปเพลงนี้ที่คุณ ร้อง/เล่น ด้วยตัวคุณเอง ได้แล้ววันนี้
ระหว่างการทดสอบระบบหากพบข้อผิดพลาด กรุณาแจ้งที่นี่
เลี้ยงส่งให้ความปวดร้าวความเศร้าทำเราเจ็บ
เลี้ยงส่งให้เธอกับเค้า โว้ๆๆเย้ๆๆๆ
ใครมีเนื้อ หรอคอร์ดก้เอามาลงนะครับ


แล้วเดี๋ยวผมแกะโซโล่มาลงให้เอง แน่นอนครับ สัญญาลูกผู้ชายเลย
ส่งเพลงนี้ให้เพื่อน
วันที่โพสต์ : 21 ก.ค.2548,14:25น. 203.118.112.97
จำนวนผู้ชม : 385563 คน / แสดงความคิดเห็น : 179 ครั้ง
โพสต์โดย


จาก: b@((
เข้าร่วม: 9 ปีก่อน
เพลง: 0
โพสต์: 2
เพลงแนะนำ
เพลงฮิต
เลือกแสดงเฉพาะ :

  • 22 ก.ค.2548,12:46น.
    มาทำตามที่สัญญาไว้ครับผมมมม
    เพลง เลี้ยงส่งของโซคูลครับ พึงแกะ หมาดๆเลยเอามาลงดู ใครแกะได้เหมือนกว่าผมก็เอามาลงกันได้นะครับ
    เพราะก็ไม่ได้เก่งไรมากมาย แกะเท่าที่ได้ยิอ่ะครับอาจจะไม่ตรง

    By b(( Absolute มือกีต้าร์ แห่ง เบญจมราชาลัย 3 อิๆๆ คือ ผมอ่อนที่สุด ใน รร แล้วอ่ะคับ

    Intro

    E-----------------------------------------------------------------------------------------------------------------
    B------------------------------------------------------------------------------------------------------------------
    G-------------------------------------- 4-5-4----------------------------------------------------------------------
    D---6^--1-3--4-6-4-----6^-1-3-4-6------------1-3-4/6--4---------------------------------------------------------


    Solo

    E---------------------------------------------------9---8---9-9/11---11------------------
    B---------------------------------------------------9---8---9-9/11---11------------------
    G--------4--3-------------4--3-----------------------------------------------------------
    D---------------4----------------4------4------------------------------------------------
    A--4/6-------------4/6--------------6----------------------------------------------------

    E-----------------------------------------------------14^-14---------------------------- 14-------14------14------14--------
    B---------------14^-12-----------------------------------------14^-14--12-----12--14^-----14^-----14^-----14^------------
    G-----6^--4-------------------4----4/6--6^--6^--4-------------------------13-----------------------------------------------
    D-------------------------4/6----6-------------------------------------------------------------------------------------------
    A----------------------------------------------------------------------------------------------------------------------------


    E----------------------------------------------------------------------------------------------------------------------------------------14-----14---------14^-14----------
    B----14^-14^-14-12-14-14----14^--14^--14--12--12------------------------------------------12--11--11-12-----------11--12--14-14^------14^---14-12-------------------
    G-------------------------------------------------------------------------------------11--13--------------------13--11------------------------------------------------------
    D----------------------------------------------------------------9------9--11--11/13----------------------------------------------------------------------------------------
    A----------------------------------------------------------9/11-----11------------------------------------------------------------------------------------------------------
  • b@((
    Guest
  • 22 ก.ค.2548,15:30น.
    เอาใหม่ครับมันเรียงกันผิด

    By b(( Absolute มือกีต้าร์ แห่ง เบญจมราชาลัย 3 อิๆๆ คือ ผมอ่อนที่สุด ใน รร แล้วอ่ะคับ

    Intro

    E-----------------------------------------------------------------------------------------------------------------
    B------------------------------------------------------------------------------------------------------------------
    G-------------------------------------- 4-5-4----------------------------------------------------------------------
    D---6^--1-3--4-6-4-----6^-1-3-4-6------------1-3-4/6--4---------------------------------------------------------


    Solo

    E---------------------------------------------------9---8---9-9/11---11------------------
    B---------------------------------------------------9---8---9-9/11---11------------------
    G--------4--3-------------4--3-----------------------------------------------------------
    D---------------4----------------4------4------------------------------------------------
    A--4/6-------------4/6--------------6----------------------------------------------------

    E----------------------------------------------------- 14^-14---------------------------- 14-------14------14------14--------
    B---------------14^-12---------------------------------------- -14^-14--12-----12--14^-----14^-----14^-----14^------------
    G-----6^--4-------------------4----4/6--6^--6^--4-------------------------13-----------------------------------------------
    D-------------------------4/6----6-------------------------------------------------------------------------------------------
    A----------------------------------------------------------------------------------------------------------------------------


    E----------------------------------------------------------------------------------------------------------------------------------------14-----14---------14^-14----------
    B----14^-14^-14-12-14-14----14^--14^--14--12--12------------------------------------------12--11--11-12-----------11--12--14-14^------14^---14-12-------------------
    G-------------------------------------------------------------------------------------11--13--------------------13--11------------------------------------------------------
    D-------------------------------------------------------------------------------------- 9------9--11--11/13----------------------------------------------------------------------------------------
    A--------------------------------------------------------- --------------------9/11-----11------------------------------------------------------------------------------------------------------
  • b@((
    Guest
  • 22 ก.ค.2548,15:43น.
    เอาใหม่ครับมันเรียงกันผิด คราวนี้ ชัวครับ ไม่มีมั่วแน่นอน ต้อง ขอโทดจริง เพราะ ตอนที่ผมเขียนแทบ ผมไม่ได้เขียนในนี้ พอเอามาลง แล้วมันเลย มั่ว

    By b(( Absolute มือกีต้าร์ แห่ง เบญจมราชาลัย 3 อิๆๆ คือ ผมอ่อนที่สุด ใน รร แล้วอ่ะคับ

    Intro

    E-----------------------------------------------------------------------------------------------------------------
    B------------------------------------------------------------------------------------------------------------------
    G-------------------------------------- 4-5-4----------------------------------------------------------------------
    D---6^--1-3--4-6-4-----6^-1-3-4-6------------1-3-4/6--4---------------------------------------------------------


    Solo

    E---------------------------------------------------9---8---9-9/11---11------------------
    B---------------------------------------------------9---8---9-9/11---11------------------
    G--------4--3-------------4--3-----------------------------------------------------------
    D---------------4----------------4------4------------------------------------------------
    A--4/6-------------4/6--------------6----------------------------------------------------

    E----------------------------------------------------- 14^-14---------------------------- 14-------14------14------14--------
    B---------------14^-12---------------------------------------- -14^-14--12-----12--14^-----14^-----14^-----14^------------
    G-----6^--4-------------------4----4/6--6^--6^--4-------------------------13-----------------------------------------------
    D-------------------------4/6----6-------------------------------------------------------------------------------------------
    A----------------------------------------------------------------------------------------------------------------------------


    E-------------------------------------------------------------------------------------------------------------------------------------------------------------------------------------14-----14---------14^-14----------
    B----14^-14^-14-12-14-14----14^--14^--14--12--12-------------------------------------------------------------12--11--11-12-----------11--12--14-14^------14^------14-12-------------------
    G-----------------------------------------------------------------------------------------------------------------------11--13--------------------13--11------------------------------------------------------
    D-------------------------------------------------------------------------------------- 9------9--11--11/13----------------------------------------------------------------------------------------
    A--------------------------------------------------------- --------------------9/11-----11------------------------------------------------------------------------------------------------------
  • ผู้รู้
    Guest
  • 26 ก.ค.2548,23:10น.
    รบกวนช่วยสอนtab หน่อยจิครับ เอาเเต่ละเเบบเลย เช่น 
    E--------------------------------------------------------------------------------------------------------------
    B--------------------------------------------------------------------------------------------------------------
    G-------------------------------------- 4-5-4-----------------------------------------------------------
    D---6^--1-3--4-6-4-----6^-1-3-4-6------------1-3-4/6--4------------------------------------------

    เอาแค่นี้ก่อนครับ ว่ามันเล่นยังไงอ่า
  • 19 ส.ค.2548,15:26น.
    คุณ b((  ครับ
    คืออยากแนะที่นึงครับ
    ตรงคอร์ดอันแรกของคุณ คิดว่าตอนผมเล่นไปมันฟังดูแปลกพิกล
    มันดูทีหลัง
    คอร์ด Gm ต้องเป็น G#m นะครับ อย่างเช่น

    E F# B G#m
    **เลี้ยงส่งให้ความปวดร้าวความเศร้าทำเอาเจ็บ
    E F# B Eb
    เลี้ยงส่งให้เธอกับเขาได้รักกันนานๆ
    E F# B G#m Db
    ขอให้เธอโชคดีพ้นจากคนคนนี้ที่เธอไม่ต้องการ
    E F# G#m
    เช็คบิลที่ฉันซื้อความเสียใจฉันจะจ่ายเอง
  • แbงค์
    Guest
  • 23 ส.ค.2548,23:03น.
    เอาบั้ง
    Intro
    1/--------------------------------------------------------------------------------------------------------
    2/--------------------------------------------------------------------------------------------------------
    3/---------------------------------------------------------------------7/9/8---------------------------
    4/---10/12--3/6--7-8-8/10-8--10/12--3/6--7-8-8/10------------3/6--7-8-8/10/8---
    5/---------------------------------------------------------------------------------------------------------
    6/---------------------------------------------------------------------------------------------------------

    ส่วน soloคงอีกนาน
  • กาละแม
    Guest
  • 24 ส.ค.2548,01:59น.
    เพลง เลี้ยงส่ง
    So Cool : So Hot

    Intro: Fmaj7 G C Am Fmaj7 G Fmaj7
    F G C Am F G C

    Am G F G
    เธอไปไม่ลาสักคำ ไม่ทันได้เตรียมใจ

    Am G F G
    มันกินมันนอนไม่ได้ น้ำตาลยังขมปาก

    Am G F
    ทำคนรักกันให้เจ็บเกือบตาย

    G F E
    ดังเสือที่มันหมดสิ้นลาย เจ็บมาจนถึงวันนี้


    Am G F G
    ถ้าเธอไม่รังเกียจกัน พาเค้ามาด้วยเลย

    Am G F G
    มาคุยกันแบบเปิดเผย เรื่องเธอกับคนนั้น

    Am G F
    มีคำถามเดียวที่อยากจะถาม

    G F E
    ว่าเค้าสมควรแค่ไหนกัน เข้ามาแย่งเธอจากฉัน


    F E
    *ที่เก่าเจ้าเดิม ให้มาเจอ ขอให้เธออย่าลืมนะ

    F G C Am
    **เลี้ยงส่งให้ความปวดร้าว ความเศร้าทำเอาเจ็บ

    F G C Am
    เลี้ยงส่งให้เธอกับเขา ได้รักกันนานๆ

    F G C Am D7
    ขอให้เธอโชคดีพ้นจากคน คนนี้ที่เธอไม่ต้องการ

    F G C
    เช็คบิลที่ฉันซื้อความเสียใจฉันจะจ่ายเอง

    Instru: Am/F/G/G/

    Am G F G
    ทำไมหน้าเศร้าอย่างนั้น งานเลี้ยงต้องเลิกรา

    Am G F G
    เรื่องเราไม่ใช่ปัญหา เพราะเธอยังมีเค้า

    Am G F
    ไม่ควรเศร้าใจถ้าเลือกจะไป

    G F E
    ก็ขอให้เธอได้รักกัน ให้นานกว่ารักกับฉัน


    (ซ้ำ *,**)

    Solo:Am/F/G/A/
    F G C Am(3times) D7/F G

    (ซ้ำ **)

    F G C Am F G C
    เฮ้อ .... โว ..... โฮ ..........โว ....
  • 28 ส.ค.2548,15:47น.
    หัดแกะน่ะครับ Intro
    1/-----------------------------------------------------------------------------
    2/--7^--0--3-4-5--3--7^--0-----3--4--5--7/8--0--3-4-5-3-3-----

    ผิดก็แก้ให้ด้วยครับผม
  • 3 ก.ย.2548,15:21น.
    เพลง เลี้ยงส่ง        So Cool : So Hot

    Intro: G#mF#/ B G#m / E F# / B /E F#/B G#m/ E F# / B
    G#m F# E F#
    เธอไปไม่ลาสักคำ ไม่ทันได้เตรียมใจ
    G#m F# E F#
    มันกินมันนอนไม่ได้ น้ำตาลยังขมปาก
    G#m F# E
    ทำคนรักกันให้เจ็บเกือบตาย
    F# E Eb
    ดังเสือที่มันหมดสิ้นลาย เจ็บมาจนถึงวันนี้
    G#m F# E F#
    ถ้าเธอไม่รังเกียจกัน พาเค้ามาด้วยเลย
    G#m F# E F#
    มาคุยกันแบบเปิดเผย เรื่องเธอกับคนนั้น
    G#m F# E F# E
    มีคำถามเดียวที่อยากจะถาม ว่าเค้าสมควรแค่ไหนกัน
    Eb E Eb
    เข้ามาแย่งเธอจากฉัน ที่เก่าเจ้าเดิม ให้มาเจอ ขอให้เธออย่าลืมนะ
    E F# B G#m
    * เลี้ยงส่งให้ความปวดร้าว ความเศร้าทำเอาเจ็บ
    E F# B G#m E F# B
    เลี้ยงส่งให้เธอกับเขา ได้รักกันนานๆ ขอให้เธอโชคดีพ้นจากคน
    G#m C# E F#
    คนนี้ที่เธอไม่ต้องการ เช็คบินที่ฉันซื้อความเสียใจฉันจะจ่ายเอง

    Intro: G#m / E / F# / F#
    G#m F# E F#
    ทำไมหน้าเศร้าอย่างนั้น งานเลี้ยงต้องเลิกรา
    G#m F# E F#
    เรื่องเราไม่ใช่ปัญหา เพราะเธอยังมีเค้า
    G#m F# E F# E
    ไม่ควรเศร้าใจถ้าเลือกจะไป ก็ขอให้เธอได้รักกัน
    Eb E Eb
    ให้นานกว่ารักกับฉัน ที่เก่าเจ้าเดิม ให้มาเจอ ขอให้เธออย่าลืมนะ ( ซ้ำ * )

    Solo: G#m/E/F#/G#m /

    E F# / B G#m ( 3times ) C# / E F# (ซ้ำ * )

    Outro E/F#/G/E/F#/B
    เฮ้อ .... โว ..... โฮ ..........โว ....

    ผมว่าน่าจะถูกมากกว่า ช่วยดูด้วยน่า
  • 11 ก.ย.2548,18:41น.
    อันนี้ชัวร์คิดแล้วคิดอิกไม่เหมือนให้ตบหัวเลย  ลองเล่นดูครับ
    6------------------------------------------------------------------------
    5------------------------------------------------------------------------
    4-----------------------------------------------------------------------
    3--7^2---4- 5--7--5----7^2---4--5--7-------2-4--5/7---5---5
    2---------------------------------------------6--5----------------------
    1------------------------------------------------------------------------
  • KrItzA
    Guest
  • 19 ก.ย.2548,22:07น.
    เพลง เลี้ยงส่ง
    So Cool : So Hot

    Intro: Fmaj7 G C Am Fmaj7 G Fmaj7
    F G C Am F G C

    Am G F G
    เธอไปไม่ลาสักคำ ไม่ทันได้เตรียมใจ
    Am G F G
    มันกินมันนอนไม่ได้ น้ำตาลยังขมปาก
    Am G F
    ทำคนรักกันให้เจ็บเกือบตาย
    G F E
    ดังเสือที่มันหมดสิ้นลาย เจ็บมาจนถึงวันนี้

    Am G F G
    ถ้าเธอไม่รังเกียจกัน พาเค้ามาด้วยเลย
    Am G F G
    มาคุยกันแบบเปิดเผย เรื่องเธอกับคนนั้น
    Am G F
    มีคำถามเดียวที่อยากจะถาม
    G F E
    ว่าเค้าสมควรแค่ไหนกัน เข้ามาแย่งเธอจากฉัน

    F E
    *ที่เก่าเจ้าเดิม ให้มาเจอ ขอให้เธออย่าลืมนะ
    F G C Am
    **เลี้ยงส่งให้ความปวดร้าว ความเศร้าทำเอาเจ็บ
    F G C Am
    เลี้ยงส่งให้เธอกับเขา ได้รักกันนานๆ
    F G C Am D7
    ขอให้เธอโชคดีพ้นจากคน คนนี้ที่เธอไม่ต้องการ
    F G C
    เช็คบิลที่ฉันซื้อความเสียใจฉันจะจ่ายเอง

    Instru: Am/F/G/G/

    Am G F G
    ทำไมหน้าเศร้าอย่างนั้น งานเลี้ยงต้องเลิกรา
    Am G F G
    เรื่องเราไม่ใช่ปัญหา เพราะเธอยังมีเค้า
    Am G F
    ไม่ควรเศร้าใจถ้าเลือกจะไป
    G F E
    ก็ขอให้เธอได้รักกัน ให้นานกว่ารักกับฉัน

    (ซ้ำ *,**)

    Solo:Am/F/G/A/
    F G C Am(3times) D7/F G

    (ซ้ำ **)

    F G C Am F G C
    เฮ้อ .... โว ..... โฮ ..........โว ....
  • Fox...
    Guest
  • 20 ก.ย.2548,18:45น.
    6------------------------------------------------------------------------
    5------------------------------------------------------------------------
    4--------9---11-12--14--12---------9--11-12--14^--------------9--11-12--14--12^-----
    3-/11^-------------------------/11^---------------------/12-11^-------------------------------
    2-------
    1------------------------------------------------------------------------
  • benz
    Guest
  • 21 ก.ย.2548,21:54น.
    1----1s3---------------1------1s3---------------1--------4----3-------------1
    2----------1--1s3s4-----4---------1--1s3s4------4--------------1-3-4--------4-4
    3-------------------------------------------------------------------------------------------
  • ผู้รู้
    Guest
  • 22 ก.ย.2548,20:20น.
    Am          G    Fmaj7     G
    เธอไปไม่ลาซักคำ ไม่ทันได้เตรียมใจ
  • 22 ก.ย.2548,20:23น.
    intro

    1-------------------------------------------
    2------------------------------------------
    3--7/9-------4h5--7--5-----7/9-------4h5---7---7/9^9----------4-5---7--5-5----
    4----------7----------------------------7-----------------------------7---
    5----------------------------------------------
    6-----------------------------------------------
    ของแท้ครับ รับไม่ลอง ลองไปเล่นดูละกันเด๋ววันหลังแกะ Joloมาให้นะครับ ใกล้ล่ะ
  • ต้น
    Guest
  • 24 ก.ย.2548,03:43น.
    เราว่า ไม่ Am ก็ A ล่ะ  ที่เราแกะมากน่าจะ 
    Intro:ไม่แน่ใจ ก็เลยม่โพส
    Am G Fmaj7 G
    เธอไปไม่ลาสักคำ ไม่ทันได้เตรียมใจ
    Am G Fmaj7 G
    มันกินมันนอนไม่ได้ น้ำตาลยังขมปาก
    Am G Fmaj7
    ทำคนรักกันให้เจ็บเกือบตาย
    G Fmaj7 E
    ดังเสือที่มันหมดสิ้นลาย เจ็บมาจนถึงวันนี้

    Am G Fmaj7 G
    ถ้าเธอไม่รังเกียจกัน พาเค้ามาด้วยเลย
    Am G Fmaj7 G
    มาคุยกันแบบเปิดเผย เรื่องเธอกับคนนั้น
    Am G Fmaj7
    มีคำถามเดียวที่อยากจะถาม
    G Fmaj7 E
    ว่าเค้าสมควรแค่ไหนกัน เข้ามาแย่งเธอจากฉัน

    F maj7
    *ที่เก่าเจ้าเดิม ให้มาเจอ
    E
    ขอให้เธออย่าลืมนัด
    Fmaj7 G C Am
    **เลี้ยงส่งให้ความปวดร้าว ความเศร้าทำเอาเจ็บ
    F maj7 G C Am
    เลี้ยงส่งให้เธอกับเขา ได้รักกันนานๆ
    F G C Am D
    ขอให้เธอโชคดีพ้นจากคน คนนี้ที่เธอไม่ต้องการ
    Fmaj7 G C
    เช็คบิลที่ฉันซื้อความเสียใจฉันจะจ่ายเอง

    Intro: ไม่แน่ใจ ก็เลยไม่โพส
    Am G Fmaj7 G
    ทำไมหน้าเศร้าอย่างนั้น งานเลี้ยงต้องเลิกรา
    Am G F maj7 G
    เรื่องเราไม่ใช่ปัญหา เพราะเธอยังมีเค้า
    Am G Fmaj7
    ไม่ควรเศร้าใจถ้าเลือกจะไป
    G Fmaj7 E
    ก็ขอให้เธอได้รักกัน ให้นานกว่ารักกับฉัน
    (ซ้ำ *,**)
    SoLo: ไม่แน่ใจ ก็เลยไม่โพส
    (ซ้ำ ** )
    โทษทีนะ พอดีไม่แน่ใจตรง Intro และ SoLo ถ้ามั่นใจ จะมาเล่าสู่กันฟัง
  • ค้น
    Guest
  • 3 ต.ค.2548,17:17น.
    1-------------------------------------
    2---------------------------------------------6--5----------------------
    3 7^--2--4--5--7--5--7^--2--4--5--7---------2--4--5--7--5--5
    4-------------------------------------
    5-------------------------------------
    6------------------------------------


    คล้ายๆ กับ ผู้ตอบคนที่70อ่ะครับ
    ไม่แน่ใจมากเพราะใช่กีตาร์โปร่งแกะอ่ะครับ
  • คนที่รักสอง
    Guest
  • 3 ต.ค.2548,17:27น.
    Intro : Fmaj7 G/Csus2 Am/Fmaj7  G/Fmaj7 /
    /Fmaj7 G/Csus2 Am/Fmaj7 G /C/

    Am G Fmaj7 G
    เธอไปไม่ลาสักคำ ไม่ทันได้เตรียมใจ
    Am G Fmaj7 G
    มันกินมันนอนไม่ได้ น้ำตาลยังขมปาก
    Am G Fmaj7
    ทำคนรักกันให้เจ็บเกือบตาย
    G Fmaj7 E
    ดังเสือที่มันหมดสิ้นลาย เจ็บมาจนถึงวันนี้

    Am G Fmaj7 G
    ถ้าเธอไม่รังเกียจกัน พาเค้ามาด้วยเลย
    Am G Fmaj7 G
    มาคุยกันแบบเปิดเผย เรื่องเธอกับคนนั้น
    Am G Fmaj7
    มีคำถามเดียวที่อยากจะถาม
    G Fmaj7 E
    ว่าเค้าสมควรแค่ไหนกัน เข้ามาแย่งเธอจากฉัน

    F maj7
    *ที่เก่าเจ้าเดิม ให้มาเจอ
    E
    ขอให้เธออย่าลืมนัด
    Fmaj7 G C Am
    **เลี้ยงส่งให้ความปวดร้าว ความเศร้าทำเอาเจ็บ
    F maj7 G C Am
    เลี้ยงส่งให้เธอกับเขา ได้รักกันนานๆ
    Fmaj7 G C Am D
    ขอให้เธอโชคดีพ้นจากคน คนนี้ที่เธอไม่ต้องการ
    Fmaj7 G C
    เช็คบิลที่ฉันซื้อความเสียใจฉันจะจ่ายเอง

    Intro: ไม่แน่ใจ ก็เลยไม่โพส
    Am G Fmaj7 G
    ทำไมหน้าเศร้าอย่างนั้น งานเลี้ยงต้องเลิกรา
    Am G Fmaj7 G
    เรื่องเราไม่ใช่ปัญหา เพราะเธอยังมีเค้า
    Am G Fmaj7
    ไม่ควรเศร้าใจถ้าเลือกจะไป
    G Fmaj7 E
    ก็ขอให้เธอได้รักกัน ให้นานกว่ารักกับฉัน
    (ซ้ำ *,**)
    SoLo: /Am/Fmaj7 /Gsus4/Asus4/
    /Fmaj7 G/C Am/ ( 2 times )
    /D/F G/
    (ซ้ำ ** )
    SoLo: /Fmaj7 G/C Am/Fmaj7 G/C/
  • 8 ต.ค.2548,10:56น.
    เลี้ยงส่ง
    Solo 1
    1----------8--(8)--------------------------------8(8)--------------------8----------------------------------
    2-------8-----------8----(8)-------------8-----------8-----------8---------8---------------
    3----8-------------------------------0-----------------------0--------------------------------------

    1---------5/8--8-8-8--x-x-----5/8--8-8---8--8-------5/8-(8)-5/3---------------------------------------------------------------
    2---------5/8--8-8-8--x-x-----5/8--8-8---------------5/8-(8)-5/3--------------------------------------

    solo 2

    1------------------------------------------------------------------------------------------------------------3/5--5---
    2-----------1---0-(0)----------------------------1---0-----(0)--------------------------3----2----3-----3/5---5----
    3-------------------------0----(0)---------------------------------0-----------0---------2----2----2------------
    4---0h2---------------------------------0h2----------------------------2-------------------------

    1---------------------------------------------------------------------------15^----15--------------------
    2---------------15^----13------------------------------------------------------------------15^--15--13--------13
    3-7^---5------------------------------5------5--7--7--5---7^--5------------------------------------------14----
    4-------------------------------5h7-------7---------------------------------------------------
    5---------------------------------------------------------------------------------------------------
    6----------------------------------------------------------------------------------------

    1------15-------15--------15------15--------------15----15-------------------------------15^----15---------------------------
    2-15^-----15^------15^-----15^------15^--------15----15------15p13---15(15)-------15-----15-------15------13--13--------


    1----------------------------------------------------------------------------------------------15--------15--------15-----------------15^15
    2-------------------------------------------------1312h13p12-------12--13--15------15^-----15^------(15)-------15-13p13----
    3--------------------------------------12--14--------------------12-----------------------------------
    4-----------10---------1012/--14-----------------------------------------------------------------
    5--10h12-------12--------------------------------------------------------------------------------------------
    6----------------------------------------------------------------------------------------

    ไม่แน่จัย โปรดลองนำไปเล่นดู

    ตามสั่งครับพี่น้อง อย่าโม้มาก ถ้าเก่งก้อเอาความสามารถมาให้คนอื่นเขาวิจาน อย่าโม้แต่ปาก
  • song
    Guest
  • 11 ต.ค.2548,17:40น.
    1-------------------------------------
    2---------------------------------------
    3 7^--2--4--5--7--5--7^--2--4--5--7---------2--4--5--7--5--5
    4---------------------------------------------6--5----
    5-------------------------------------
    6------------------------------------


  • 25 ต.ค.2548,17:08น.
    Coard : Am
    6:-----x-------------
    5:-----0-------------
    4:-------------2-----
    3:-------------2------
    2:---------1---------
    1:-----0-------------

    -----------------------------------------------------
    Coard : Am
    6:-----5-------------
    5:-------------7-----
    4:-------------7-----
    3:-----5--------------
    2:-----5-------------
    1:-----5-------------

    -----------------------------------------------------
    Coard : C
    6:-----x--------------
    5:-----------------3-
    4:-------------2-----
    3:-----0-------------
    2:---------1---------
    1:-----0-------------

    -----------------------------------------------------
    Coard : D
    6:----x--------------
    5:----x--------------
    4:----0--------------
    3:------------2------
    2:----------------1--
    1:------------2------

    -----------------------------------------------------
    Coard : E
    6:-----0-------------
    5:---------2---------
    4:---------2---------
    3:-------------1-----
    2:-----0-------------
    1:-----0-------------

    -----------------------------------------------------
    Coard : F
    6:-----1-------------
    5:-------------3-----
    4:-------------3-----
    3:---------2---------
    2:-----1-------------
    1:-----1-------------

    -----------------------------------------------------
    Coard : Fmaj7
    6:----x--------------
    5:-------------3-----
    4:-------------3-----
    3:--------2----------
    2:----1--------------
    1:----0--------------

    -----------------------------------------------------
    Coard : G
    6:----3--------------
    5:-------------5-----
    4:-------------5-----
    3:--------4----------
    2:----3--------------
    1:----3--------------

    -----------------------------------------------------
    Coard : Gmaj6
    6:----x--------------
    5:-------------5-----
    4:-------------5-----
    3:-------4----------
    2:----3--------------
    1:----0--------------

    -----------------------------------------------------

    เพลง เลี้ยงส่ง
    So Cool : So Hot

    Intro: Fmaj7 Gmaj6 / C Am / Fmaj7 Gmaj6 / Fmaj7
    Fmaj7 Gmaj6 / C Am / Fmaj7 Gmaj6 / C

    Am G F G
    เธอไปไม่ลาสักคำ ไม่ทันได้เตรียมใจ
    Am G F G
    มันกินมันนอนไม่ได้ น้ำตาลยังขมปาก
    Am G F
    ทำคนรักกันให้เจ็บเกือบตาย
    G F E
    ดังเสือที่มันหมดสิ้นลาย เจ็บมาจนถึงวันนี้

    Am G F G
    ถ้าเธอไม่รังเกียจกัน พาเค้ามาด้วยเลย
    Am G F G
    มาคุยกันแบบเปิดเผย เรื่องเธอกับคนนั้น
    Am G F
    มีคำถามเดียวที่อยากจะถาม
    G F E
    ว่าเค้าสมควรแค่ไหนกัน เข้ามาแย่งเธอจากฉัน

    F E
    *ที่เก่าเจ้าเดิม ให้มาเจอ ขอให้เธออย่าลืมนะ
    Fmaj7 Gmaj6 C Am
    **เลี้ยงส่งให้ความปวดร้าว ความเศร้าทำเอาเจ็บ
    Fmaj7 Gmaj6 C Am
    เลี้ยงส่งให้เธอกับเขา ได้รักกันนานๆ
    Fmaj7 Gmaj6 C Am D
    ขอให้เธอโชคดีพ้นจากคน คนนี้ที่เธอไม่ต้องการ
    Fmaj7 Gmaj6 C
    เช็คบิลที่ฉันซื้อความเสียใจฉันจะจ่ายเอง

    Instru: Am/F/G/G/

    Am G F G
    ทำไมหน้าเศร้าอย่างนั้น งานเลี้ยงต้องเลิกรา
    Am G F G
    เรื่องเราไม่ใช่ปัญหา เพราะเธอยังมีเค้า
    Am G F
    ไม่ควรเศร้าใจถ้าเลือกจะไป
    G F E
    ก็ขอให้เธอได้รักกัน ให้นานกว่ารักกับฉัน

    (ซ้ำ *,**)

    Solo: Am/F/G/A/
    Fmaj7 Gmaj6 / C Am / (3times) D/Fmaj7 Gmaj6

    (ซ้ำ **)

    Fmaj7 Gmaj6 / C Am / Fmaj7 Gmaj6 / C
    เฮ้อ .... โว ..... โฮ ..........โว ....


  • 25 ต.ค.2548,17:33น.
                          1      1   1-2      2     1     1     1   1-2     2         3     1    1     1-2   1   1
    Intro : 6:--------------------------------------------------------------------------------------------------
    5:------------7----------------------------7------------------------7-----------------------------
    4:----7s9*-----4h5--5s7--5--5s9*-----4h5--5s7--9^10----4h5--5s7--5--5*------
    3:--------------------------------------------------------------------------------------------------
    2:--------------------------------------------------------------------------------------------------
    1:--------------------------------------------------------------------------------------------------

    100% ครับผม ไม่เชื่อดูตาม mv ได้เลย

    Solo เหมือน ผู้ตอบคนที่ 106 เลยครับเด้ะๆเลย

    ปล. s = สไลด์
    h = ระหว่าที่ดีดครั้งแรกให้กดอีกนิวนึงลงบนครั้งที่สอง
    * = สั่นเสียง
    1 , 2 , 3 คือนิ้วนะครับ 1=ชี้ , 2=กลาง , 3=นาง
    หวั่งว่าคงไม่ยากเกินไปนะครับเหอๆจากวง Heart แห่ง BBC
  • snowykung
    Guest
  • 6 พ.ย.2548,18:53น.
    4| 10/12---3/6--7-8--8/10----8--10/12---3/6---7-8--8/10----------3/6--7-8--8/10--8-8
    3| ---------------------------------------------------------------------------7/8-----------------------------


    ผมเล่นแบบนี้ แน่นอนที่สุด
  • ปัน
    Guest
  • 18 ธ.ค.2548,10:48น.
    ไม่รู้ถูกป่าวนะ แต่ผมได้งี้อะ
    intro นะ
    ---0-----------------------------------0----------------------------1--------0------------------------------
    ------------0----1----3-----1---------------------0----1----3-------------------------0---1---3----1--1
    -------2------------------------------------2--------------------------------------2------------------------0
    --------------------------------------------------------------------------------------------------------------2
    ----------------------------------------3-----------0--------------------------------------------------------3
    --1--------3-------------------------------------------------------------------1----------3-----------------
  • boyjovi e_m_m_a29@hotmail.com
    Guest
  • 14 ก.พ.2549,20:50น.
    ของผมชัวแต่soloอาจยากไปนิด
    intro
    2:--5---------------------5-------------------------5--6---5
    3;---------4--5--7--5----------------4--5--7-------------------------4--5---7-----5----จบ
    4;------7------------------------7---------------------------------7

    solo 1:
    1:----------------8---|--------------8----|------------8---|---8----8-8----8---8---8-8---5-8-5
    2:------8-----8-----8|-----8----8----8|-----8---8----8|----8----8-8----8---8---8-8---5-8----8
    3:---0-----0----------|-0-----0---------|--0---0---------|-----------------------------------------

    solo2:
    1:--------------------------------------------------------------|-----12---|----------------------------|
    2:--------------------------------------------------------------|--5-----12|------------------5-5-----|
    3:-------5-4---------------5-4-----------7-7-6-6-7-9-9--|---5-------|-------5----5-7-------5--|
    4:-------------5-----------------5---5----7-7-7-7-7-7-7--|------------|-5-7----7----------------|
    5:-5-7----------7---5-7---------7---------------------------|------------|---------------------------|

    1:--5-----------------|----------------------------|-----------------|-------------------------------------|
    2:----8--5-----------|-5-8-5-8-8--8-5-5-8-5|--5--5--5-----|-------------------------------------|
    3:----------7--5---5|-----------------------------|------------7-5|---------------------5-4---4-5--7|
    4:-----------------6--|----------------------------|-----------------|----------------5-7------5---------|
    5:---------------------|----------------------------|-----------------|---3---3-5-7----------------------|
    6:--------------------------------------------------------------------|-5--5------------------------------|

    1:-------------------5--3-|
    2:-5--8--5---------------|
    3:-----------7--5---------|สองห้องสุดท้ายจะเร็วหน่อย เวลาฝึกฟังเทปด้วยนะ



  • มือใหม่
    Guest
  • 16 ม.ค.2550,16:17น.

    intro นะ ลองเล่นดู
    1+-------5---------------------------5-----------------------6----5-----------------------------------
    2+-----------3---5---6---8---6---------3---5---6----8-------------3----5-----6-----8-----6------
    ไม่รู้ว่าเข้าหรือเปล่านะ งุงิ อิอิ
1

ขอเชิญร่วมแสดงความคิดเห็นครับ

คลิกที่รูป เพื่อแทรกรูปลงในข้อความ
  • Member :
    username
    password
  • Not a member :
    name
    email