Loading

คอร์ดเพลง เหลวแหลก

ไฮเปอร์ (Hyper)

อัพโหลดคลิปเพลงนี้ที่คุณ ร้อง/เล่น ด้วยตัวคุณเอง ได้แล้ววันนี้
ระหว่างการทดสอบระบบหากพบข้อผิดพลาด กรุณาแจ้งที่นี่
เหลวแหลก

Artist : ไฮเปอร์ (Hyper)

Intro : F
C Em Am / F Fm C

C Em Am
[A1] รู้ว่าเธอไม่เข้าใจ ว่าทำไมต้องเฉยชา

F G
ทั้งที่เธอทุ่มเทให้ฉัน…ทั้งใจ

C Em Am
ก็ฉันยังกลัว ไม่กล้าเอ่ยคำบอกรักไป

F Fm G
ถึงแม้ว่าใจจะมีแต่เธอเสมอมา

Em Am
เพราะมีบางอย่าง ที่ค้างคาอยู่ในใจ

Em F G
มันคืออดีต ที่ยากเกินกว่าใจฉันจะลบเลือน

C Em Am
[C] ถ้าฉันเคยเหลวแหลก แล้วเธอจะยังรักไหม

F G C
ถ้าฉันเคยเป็นของใคร แล้วเธอรับได้หรือเปล่า

F G Em Am
ถ้าหัวใจที่ให้เธอ…ดวงนี้ ยังมีรอยแผลเก่า

F G C
อยากรู้ว่าเธอจะรักกันอีกไหม

Insru : F G C

C Em Am
[A2] ฉันต้องทนตั้งเท่าไหร่ เพื่อให้ใจที่รักเธอ

F G
ซ่อนอาการที่จะเปิดเผยรักไป

C Em Am
ก็คิดว่าฉันไม่คู่ควรเธอสักเท่าไร

F Fm G
เพราะรู้ว่าใจมันคงไม่มีคุณค่าพอ

Repeat ,[C]

Solo : C / G
C Em Am / F Fm C

Repeat [C]

Outro : C Em Am / F Fm C

แกะเอง ไม่เหมือนให้ฟ้าผ่าหัวหมาเลย
ส่งเพลงนี้ให้เพื่อน
วันที่โพสต์ : 8 ส.ค.2547,01:10น.
จำนวนผู้ชม : 90573 คน / แสดงความคิดเห็น : 89 ครั้ง
โพสต์โดย


จาก: กาละแม
Guest
เพลงแนะนำ
เพลงฮิต
เลือกแสดงเฉพาะ :

  • กาละแม
    Guest
  • 8 ส.ค.2547,01:15น.
    เวร...โทษทีครับ ทำไมกลายเป็นตัวหนาไปซะได้ ลงให้ใหม่ครับ
    

    เหลวแหลก

    Artist : ไฮเปอร์ (Hyper)

    Intro : F
    C Em Am / F Fm C

    C Em Am
    (A1) รู้ว่าเธอไม่เข้าใจ ว่าทำไมต้องเฉยชา

    F G
    ทั้งที่เธอทุ่มเทให้ฉันทั้งใจ

    C Em Am
    ก็ฉันยังกลัว ไม่กล้าเอ่ยคำบอกรักไป

    F Fm G
    ถึงแม้ว่าใจจะมีแต่เธอเสมอมา

    Em Am
    (B) เพราะมีบางอย่าง ที่ค้างคาอยู่ในใจ

    Em F G
    มันคืออดีต ที่ยากเกินกว่าใจฉันจะลบเลือน

    C Em Am
    (C) ถ้าฉันเคยเหลวแหลก แล้วเธอจะยังรักไหม

    F G C
    ถ้าฉันเคยเป็นของใคร แล้วเธอรับได้หรือเปล่า

    F G Em Am
    ถ้าหัวใจที่ให้เธอดวงนี้ ยังมีรอยแผลเก่า

    F G C
    อยากรู้ว่าเธอจะรักกันอีกไหม

    Insru : F G C

    C Em Am
    (A2) ฉันต้องทนตั้งเท่าไหร่ เพื่อให้ใจที่รักเธอ

    F G
    ซ่อนอาการที่จะเปิดเผยรักไป

    C Em Am
    ก็คิดว่าฉันไม่คู่ควรเธอสักเท่าไร

    F Fm G
    เพราะรู้ว่าใจมันคงไม่มีคุณค่าพอ

    Repeat (B),(C)

    Solo : C / G
    C Em Am / F Fm C

    Repeat (C)

    Outro : C Em Am / F Fm C

    คราวนี้คงใช้ได้นะครับ ขอให้มีความสุขกับการเล่นดนตรีครับ
    ((อัพเดทคอร์ดกีต้าร์))
  • กาละแม
    Guest
  • 8 ส.ค.2547,01:15น.
    เวร...โทษทีครับ ทำไมกลายเป็นตัวหนาไปซะได้ ลงให้ใหม่ครับ
    

    เหลวแหลก

    Artist : ไฮเปอร์ (Hyper)

    Intro : F
    C Em Am / F Fm C

    C Em Am
    (A1) รู้ว่าเธอไม่เข้าใจ ว่าทำไมต้องเฉยชา

    F G
    ทั้งที่เธอทุ่มเทให้ฉันทั้งใจ

    C Em Am
    ก็ฉันยังกลัว ไม่กล้าเอ่ยคำบอกรักไป

    F Fm G
    ถึงแม้ว่าใจจะมีแต่เธอเสมอมา

    Em Am
    (B) เพราะมีบางอย่าง ที่ค้างคาอยู่ในใจ

    Em F G
    มันคืออดีต ที่ยากเกินกว่าใจฉันจะลบเลือน

    C Em Am
    (C) ถ้าฉันเคยเหลวแหลก แล้วเธอจะยังรักไหม

    F G C
    ถ้าฉันเคยเป็นของใคร แล้วเธอรับได้หรือเปล่า

    F G Em Am
    ถ้าหัวใจที่ให้เธอดวงนี้ ยังมีรอยแผลเก่า

    F G C
    อยากรู้ว่าเธอจะรักกันอีกไหม

    Insru : F G C

    C Em Am
    (A2) ฉันต้องทนตั้งเท่าไหร่ เพื่อให้ใจที่รักเธอ

    F G
    ซ่อนอาการที่จะเปิดเผยรักไป

    C Em Am
    ก็คิดว่าฉันไม่คู่ควรเธอสักเท่าไร

    F Fm G
    เพราะรู้ว่าใจมันคงไม่มีคุณค่าพอ

    Repeat (B),(C)

    Solo : C / G
    C Em Am / F Fm C

    Repeat (C)

    Outro : C Em Am / F Fm C

    คราวนี้คงใช้ได้นะครับ ขอให้มีความสุขกับการเล่นดนตรีครับ
    ((อัพเดทคอร์ดกีต้าร์))
  • กาละแม
    Guest
  • 8 ส.ค.2547,11:09น.
    ขอแก้ไขอีกทีละกันครับ คราวนี้รับรองตรงเป๊ะ

    เหลวแหลก

    Artist : ไฮเปอร์ (Hyper)

    Intro : F
    C Em Am / F Fm C

    C Em Am
    (A1) รู้ว่าเธอไม่เข้าใจ ว่าทำไมต้องเฉยชา

    F G
    ทั้งที่เธอทุ่มเทให้ฉันทั้งใจ

    C Em Am
    ก็ฉันยังกลัว ไม่กล้าเอ่ยคำบอกรักไป

    F Fm G
    ถึงแม้ว่าใจจะมีแต่เธอเสมอมา

    Em Am
    (B) เพราะมีบางอย่าง ที่ค้างคาอยู่ในใจ

    Em F G
    มันคืออดีต ที่ยากเกินกว่าใจฉันจะลบเลือน

    C Em Am
    (C) ถ้าฉันเคยเหลวแหลก แล้วเธอจะยังรักไหม

    F G C
    ถ้าฉันเคยเป็นของใคร แล้วเธอรับได้หรือเปล่า

    F G Em Am
    ถ้าหัวใจที่ให้เธอดวงนี้ ยังมีรอยแผลเก่า

    F G C
    อยากรู้ว่าเธอจะรักกันอีกไหม

    Instru : F G C

    C Em Am
    (A2) ฉันต้องทนตั้งเท่าไหร่ เพื่อให้ใจที่รักเธอ

    F G
    ซ่อนอาการที่จะเปิดเผยรักไป

    C Em Am
    ก็คิดว่าฉันไม่คู่ควรเธอสักเท่าไร

    F Fm G
    เพราะรู้ว่าใจมันคงไม่มีคุณค่าพอ

    Repeat (B),(C)

    Solo : C / G
    C Em Am / F Fm C

    Repeat (C)

    Outro : C Em Am / F Fm C
    ((อัพเดทคอร์ดกีต้าร์))
  • ไก่
    Guest
  • 10 ส.ค.2547,21:00น.
    เพราะมั่กๆๆ
    ชอบมากกกกกกก
    ((อัพเดทคอร์ดกีต้าร์))
  • ไก่ มือกีตาร์จากสามเสน2
    Guest
  • 12 ส.ค.2547,19:35น.
    1)---------------------------------------------------------------------
    2)----------------------------------------------------------------------
    3)--------------7-7/9-------------10*--(10)--------7/9-----------
    4)---/10-10------------7-----10--------------10-------------------
    5)-----------------------------------------------------------------------
    6)-----------------------------------------------------------------------

    อินโทรนะคับ
    ((อัพเดทคอร์ดกีต้าร์))
  • ไก่ มือกีตาร์จากสามเสน2
    Guest
  • 12 ส.ค.2547,19:51น.
    1)-------------------------------
    2)--------------------8---------
    3)---5-5-7---------------------
    4)------------5--5---------------
    5)--------------------------------
    6)---------------------------------


    1)------------------------------------------------------------------------------------------------------
    2)---/12-12-13-12--13-------------------------------------------------------------------------
    3)----------------------------12---10-9-10-10/12--12*----9-10/12-12-------------------
    4)-----------------------------------------------------------------------------------10-10---------
    5)-----------------------------------------------------------------------------------------------------
    6)----------------------------------------------------------------------------------------------------


    1)------------------------------------------------------------------12-13--10*--------------
    2)-----------------------------------------------------------13-------------------------------
    3)---12-12--------------------------12----9-10-12--9-----9----------------------------
    4)-----------10-10---12-11*-10-----------------------------------------------------------
    5)----------------------------------------------------------------------------------------------
    6)---------------------------------------------------------------------------------------------

    โซโลนะคับ
    ((อัพเดทคอร์ดกีต้าร์))
  • kjhk
    Guest
  • 25 ส.ค.2547,11:19น.
    jkjkhkhjkjhk
    ((อัพเดทคอร์ดกีต้าร์))
  • ใหม่
    Guest
  • 29 ส.ค.2547,15:02น.
     
    ((อัพเดทแหล่งทดลองฟัง)) ((อัพเดทคอร์ดกีต้าร์)) ((ขอคอร์ดกีต้าร์))
  • อ๊อฟบูม
    Guest
  • 31 ส.ค.2547,09:59น.
    ให้ความหมายดีเป็นเพลงที่เพราะมากๆๆๆๆๆๆๆๆๆๆๆๆๆๆๆๆๆๆๆเลย 
    ((อัพเดทคอร์ดกีต้าร์))
  • โก้
    Guest
  • 2 ก.ย.2547,09:05น.
    เพราะมาก  
    ((อัพเดทคอร์ดกีต้าร์))
  • ผีบ้า.com
    Guest
  • 3 ก.ย.2547,10:41น.
    หวัดดีดีขอบคุณมาก    
    ((อัพเดทแหล่งทดลองฟัง)) ((อัพเดทคอร์ดกีต้าร์)) ((ขอคอร์ดกีต้าร์))
  • -
    Guest
  • 4 ก.พ.2550,13:42น.
    เหลวแหลก 
    Artist : ไฮเปอร์ (Hyper)

    เหลวแหลก

    Artist : ไฮเปอร์ (Hyper)

    Intro : F
    C Em Am / F Fm C

    C Em Am
    [A1] รู้ว่าเธอไม่เข้าใจ ว่าทำไมต้องเฉยชา

    F G
    ทั้งที่เธอทุ่มเทให้ฉันทั้งใจ

    C Em Am
    ก็ฉันยังกลัว ไม่กล้าเอ่ยคำบอกรักไป

    F Fm G
    ถึงแม้ว่าใจจะมีแต่เธอเสมอมา

    Em Am
    เพราะมีบางอย่าง ที่ค้างคาอยู่ในใจ

    Em F G
    มันคืออดีต ที่ยากเกินกว่าใจฉันจะลบเลือน

    C Em Am
    [C] ถ้าฉันเคยเหลวแหลก แล้วเธอจะยังรักไหม

    F G C
    ถ้าฉันเคยเป็นของใคร แล้วเธอรับได้หรือเปล่า

    F G Em Am
    ถ้าหัวใจที่ให้เธอดวงนี้ ยังมีรอยแผลเก่า

    F G C
    อยากรู้ว่าเธอจะรักกันอีกไหม

    Insru : F G C

    C Em Am
    [A2] ฉันต้องทนตั้งเท่าไหร่ เพื่อให้ใจที่รักเธอ

    F G
    ซ่อนอาการที่จะเปิดเผยรักไป

    C Em Am
    ก็คิดว่าฉันไม่คู่ควรเธอสักเท่าไร

    F Fm G
    เพราะรู้ว่าใจมันคงไม่มีคุณค่าพอ

    Repeat ,[C]

    Solo : C / G
    C Em Am / F Fm C

    Repeat [C]

    Outro : C Em Am / F Fm C

1

ขอเชิญร่วมแสดงความคิดเห็นครับ

คลิกที่รูป เพื่อแทรกรูปลงในข้อความ
  • Member :
    username
    password
  • Not a member :
    name
    email