Loading

คอร์ดเพลง แช่ง

บีคิง (B-King)

อัพโหลดคลิปเพลงนี้ที่คุณ ร้อง/เล่น ด้วยตัวคุณเอง ได้แล้ววันนี้
ระหว่างการทดสอบระบบหากพบข้อผิดพลาด กรุณาแจ้งที่นี่
โถ่ เธอจะทิ้งฉันไปทำไม ฉันดีกับเธอจะตาย she ก็ look so fine จากวันนี้คงต้องกลับบ้านไป
ร้องไห้ oh cry baby ...
อะโถ่ก้อทิ้งกันไป เพื่อนก้อบอกเพื่อนก้อเตือน แต่ทำเป็นไม่ค่อยสนใจ เค้าบอกมาว่าเธอนั้นคนหลายใจ
จะไม่ขอแก้แค้น แต่ขอแช่งเธอเอาไว้

*ให้ตกน้ำ ตกรถ ตกเรือ ตกท่าน้ำ ตกเครื่องบิน ตกโต๊ะ ตกเตียง ตกตู้ ตกสอบ สอบตก
ให้คางคกกัด ให้งูรัด ให้โดนพัดลมบาดมือ บาดนิ้ว และบาดแขน บาดขา สิวขึ้นหน้า ฝ้าขึ้นหลัง ลามขึ้นคอ
ยังไม่พอ ขอให้อกหัก ไม่พบรัก ทุกชาติ ทุกชาติไป.....

เอ่อตอนนี้อะนะ ฉันรู้สึกว่าตัวเป็น+++ รู้สึกไม่ค่อยจะสบายเหมือนโดนเธอสวมเขาจาก คุณเธอใช่มั้ย
เอ่อ..โถ่..ไม่ค่อยจะเข้าใจ รูปก็หล่อ พ่อก้อรวย +++ฉันก้อขับเบ็นซ์ แต่มีแฟนสักทีทำไมแสนสุดจะยากเย็น
คงเป็นเพราะเรานั้นจีบหญิงไม่ค่อยจะเก่ง ก้อเลยต้องเซ็ง ได้แต่นั่งแช่งเธอ

(ซ้ำ * )


เซ็ง ต้องเซ็งแบบนี้อีกนานเท่าไหร่ ต้องทำอย่างไรเธอถึงจะพอให้ใจ บทสรุปมันอยู่ตรงที่การใช้ดุลยพินิจและ
วิจารณญาณทั่วไป อะก้อแบบนี้ละนะ แบบนี้ละว้า ที่เค้าเรียกกันว่าความรักไม่เข้าใครออกใคร สมหวัง ก้อดีใจ
ผิดหวังก้อนั่งด่า นั่งว่า นอนว่า นั่งแช่งเธอ

(ซ้ำ *,* )

สาธุ......

ส่งเพลงนี้ให้เพื่อน
วันที่โพสต์ : 11 ส.ค.2547,14:47น.
จำนวนผู้ชม : 132524 คน / แสดงความคิดเห็น : 140 ครั้ง
โพสต์โดย


จาก: nus
Guest
เพลงแนะนำ
เพลงฮิต
เลือกแสดงเฉพาะ :

  • Error
    Guest
  • 13 ส.ค.2547,20:10น.
    มีคนโพสแล้วไม่ใช่เหรอครับ.....   
    ((อัพเดทคอร์ดกีต้าร์))
  • Error
    Guest
  • 13 ส.ค.2547,20:10น.
    มีคนโพสแล้วไม่ใช่เหรอครับ.....   
    ((อัพเดทคอร์ดกีต้าร์))
  • peary_candy
    Guest
  • 13 ส.ค.2547,21:07น.
    A                                            C#m                                      Bm
    ให้ตกน้ำ ตกรถ ตกเรือ ตกท่าน้ำ ตกเครื่องบิน ตกโต๊ะ ตกเตียง ตกตู้ ตกสอบ สอบตก
    E A C#m
    ให้คางคกกัด ให้งูรัด ให้โดนพัดลมบาดมือ บาดนิ้ว และบาดแขน บาดขา สิวขึ้นหน้า ฝ้าขึ้นหลัง ลามขึ้นคอ
    Bm
    ยังไม่พอ ขอให้อกหัก ไม่พบรัก ทุกชาติ ทุกชาติไป.....


    แล้วก็ A/C#m/Bm/E อย่างงี้ทั้งเพลงอ่าค่ะ
    ((อัพเดทคอร์ดกีต้าร์))
  • 5
    Guest
  • 13 ส.ค.2547,22:55น.
       
    ((อัพเดทแหล่งทดลองฟัง)) ((อัพเดทคอร์ดกีต้าร์)) ((ขอคอร์ดกีต้าร์))
  • unknow
    Guest
  • 14 ส.ค.2547,13:57น.
    ความคิดเห็นก้อเหมือนคนข้างบนละกัน ให้ไวไววววววววววววววววววววนะคะรออยู่คะ      
    ((อัพเดทแหล่งทดลองฟัง)) ((อัพเดทคอร์ดกีต้าร์)) ((ขอคอร์ดกีต้าร์))
  • คนนับถือ
    Guest
  • 18 ส.ค.2547,18:22น.
    ฮ้าๆๆๆๆๆถูกจายยยแต่ถ้าโดนแช่งอย่างนี้คงแย่นะ  แต่งงตรงที่คางคกมีฟันด้วยเหรอ   คนแต่งต้องโดนหักอกแน่ๆๆๆๆๆไม่นั้นแต่งไม่ได้อย่างนี้  นับถือวะ      
    ((อัพเดทแหล่งทดลองฟัง)) ((อัพเดทคอร์ดกีต้าร์)) ((ขอคอร์ดกีต้าร์))
  • น้องอีฟ
    Guest
  • 19 ส.ค.2547,12:13น.
    อยากดูMV ของบีงจังเลยแอบชอบมานานก่อนพี่เค้าจะเข้าวงการอีก      
    ((อัพเดทแหล่งทดลองฟัง)) ((อัพเดทคอร์ดกีต้าร์)) ((ขอคอร์ดกีต้าร์))
  • NinNin
    Guest
  • 31 ส.ค.2547,11:54น.
    1) ----------------------------------12-----------------
    2) ----------10-10------10--12^------12-^-------------------------
    3) --9--11----------11-------------------------------------
    ((อัพเดทคอร์ดกีต้าร์))
  • ชอบโคตร
    Guest
  • 31 ส.ค.2547,17:21น.
    สุดตีนเลย โดนจัยวายรุ่นโคตร 
    ((อัพเดทคอร์ดกีต้าร์))
  • EtanicK
    Guest
  • 2 ก.ย.2547,14:37น.
    ผมแกะ Solo ได้แล้วคับ
    ใครอยากได้ เดี๋ยวเอามาโพสให้
    หรือถ้าขี้เกียจรอก็โทรมาเลยก็ได้นะคับ 04-0436452 นิก
    หรือ add มาที่ hatsu_nickhotmail.com ก็ได้นะคับ
    ((อัพเดทคอร์ดกีต้าร์))
  • อ๊อฟ St. john Commerce
    Guest
  • 2 ก.ย.2547,20:44น.
    ท่อน Solo มาตามคำขอแล้วครับ
    1 -----5-5---5--7>9--12---7>9---7-5-4-5-4-------------10>12-12--------10>12-12-----
    2 5-7------7----------------------------------------5>7-95-------------10-10-------------10-10


    1 ---12--10-9------------------------------------7>9------
    2 10-----------10------------------------7--10-------10---
    3 -----------------9-7-6--7>9------6-9--------------------
    4 --------------------------------7-9-------------------------
    (หมายเหตุสาย 1 7>9---
    2 -----10 เล่นซ้ำ 8 ครั้งครับ แล้วหลังจากนั้นดูต่อนะครับ)

    1 7>9------------------7--7>9-----7>9----7>9-----10>12---10-9-10-9----10-12----17
    2 -----7--11---7--11----------10------10-----10----------------------------10---------------

    *** > คือการลากเส้นนะครับ ใครมีปัญหาตรงส่วนไหนสามารถโทรมาได้ที่ Msn นะครับ ถ้าเล่นแล้วเสียงไม่ตรงก็ต้องขออภัยไว้ ณ ที่นี้ด้วยครับ (แล้วจะกลับมาตรวจสอบให้ใหม่อีกครั้งครับ
    ((อัพเดทคอร์ดกีต้าร์))
  • พันเด็กน่าน
    Guest
  • 4 ก.ย.2547,00:07น.
    ช่ง
    Artist : B-King
    A/C#m/Bm/E
    Yo what's up baby mama driver trama ,
    Caertanet play lacket star ,
    Lecort the night south too.
    Yeah! what throw it was out there.
    You must the broken heart lecort night.
    A C#m Bm
    โถ่ เธอจะทิ้งฉันไปทำไม ฉันดีกับเธอจะตาย she ก็ look so fine จากวันนี้คงต้องกลับบ้านไป
    E
    ร้องไห้ oh cry baby ...
    A C#m Bm
    อะโถ่ก้อทิ้งกันไป เพื่อนก้อบอกเพื่อนก้อเตือน แต่ทำเป็นไม่ค่อยสนใจ เค้าบอกมาว่าเธอนั้นคนหลายใจ
    E
    จะไม่ขอแก้แค้น แต่ขอแช่งเธอเอาไว้
    A C#m Bm
    *ให้ตกน้ำ ตกรถ ตกเรือ ตกท่าน้ำ ตกเครื่องบิน ตกโต๊ะ ตกเตียง ตกตู้ ตกสอบ สอบตก
    E A C#m
    ให้คางคกกัด ให้งูรัด ให้โดนพัดลมบาด....มือ บาดนิ้ว และบาดแขน บาดขา สิวขึ้นหน้า ฝ้าขึ้นหลัง ลามขึ้นคอ
    Bm E A
    ยังไม่พอ ขอให้อกหัก ไม่พบรัก ทุกชาติ ทุกชาติไป.....
    A C#m Bm
    เอ่อก็ตอนนี้อะนะ ฉันรู้สึกว่าตัวเป็นbufรู้สึกไม่ค่อยจะสบาย เหมือนโดนเธอสวมเขาจาก คุณเธอใช่มั้ย
    E A C#m Bm
    เอ่อ..โถ่..ไม่ค่อย.....จะเข้าใจ รูปก็หล่อ พ่อก้อรวย ไอ่ฉันก้อขับเบ็นซ์ แต่มีแฟนสักทีทำไมแสนสุดจะยากเย็น
    E
    คงเป็นเพราะเรานั้นจีบหญิงไม่ค่อยจะเก่งก้อเลยต้องเซ็ง ได้แต่นั่งแช่งเธอ
    (ซ้ำ * )
    A/C#m/Bm/E/A/C#m/Bm/E
    A C#m Bm E
    เซ็ง ต้องเซ็งแบบนี้อีกนานเท่าไหร่ ต้องทำอย่างไรเธอถึงจะพอ ให้ใจ บทสรุปมันอยู่ตรงที่การใช้ ดุลยพินิจและ
    A C#m Bm
    วิจารณญาณทั่วไป อะก้อแบบนี้ละนะ แบบนี้ละว้า ที่เค้าเรียกกันว่าความรักไม่เข้าใครออกใคร สมหวัง ก้อดีใจ
    E
    ผิดหวังก้อนั่งด่า นั่งว่า นอนว่า นั่งแช่งเธอ
    (ซ้ำ *,* )
    สาธุ......
    ((อัพเดทคอร์ดกีต้าร์))
  • 778
    Guest
  • 4 ก.ย.2547,16:23น.
             
    ((อัพเดทแหล่งทดลองฟัง)) ((อัพเดทคอร์ดกีต้าร์)) ((ขอคอร์ดกีต้าร์))
  • นายสุวัฒน์ เงินอ่อน 6/5 (ร.ป.ร.)
    Guest
  • 8 ก.ย.2547,09:45น.
    1)-------------------------------11^------------------------------------------11-11-11----11-11-11-
    2)-----------10-10-------12^-----12^-10-9------------------------------------------9-9-------------
    3)----9-11--------10-13----------------------10-8-10-8-10-12-13-8------------------------------
    4)------------------------------------------------------------------------------------------------------------
    5)------------------------------------------------------------------------------------------------------------
    6)------------------------------------------------------------------------------------------------------------

    ต่อ

    1)----------11-9-8--------------------------------------------------------------------------------------
    2)-9-9---9---------11-9-8-9-11------------------9-11^--7 รอบ----9-9----9-11^-3 รอบ-----
    3)-----------------------------------10-8-10-8-10------------------10-----10---------------------
    4)--------------------------------------------------------------------------------------------------------
    5)-------------------------------------------------------------------------------------------------------
    6)-------------------------------------------------------------------------------------------------------

    ต่อ

    1)---11-9-10-9-----------------------11------------------
    2)-9--------------11-9-10-9-10-11------------------------
    3)---------------------------------------------------------------
    4)---------------------------------------------------------------
    5)---------------------------------------------------------------
    6)--------------------------------------------------------------

    ^ หมายถึงต้องดันสาย

    ผิดถูกลองดู เอามาให้ลองนะ ฟังแค่ครั้งเดียว
    ((อัพเดทคอร์ดกีต้าร์))
  • อัมบาเรฮี๊ฮุ
    Guest
  • 1 ต.ค.2547,19:42น.
    เเช่ง
    Artist : B-King
    A/C#m/Bm/E
    Yo what's up baby mama driver trama ,
    Caertanet play lacket star ,
    Lecort the night south too.
    Yeah! what throw it was out there.
    You must the broken heart lecort night.
    A C#m Bm
    โถ่ เธอจะทิ้งฉันไปทำไม ฉันดีกับเธอจะตาย she ก็ look so fine จากวันนี้คงต้องกลับบ้านไป
    E
    ร้องไห้ oh cry baby ...
    A C#m Bm
    อะโถ่ก้อทิ้งกันไป เพื่อนก้อบอกเพื่อนก้อเตือน แต่ทำเป็นไม่ค่อยสนใจ เค้าบอกมาว่าเธอนั้นคนหลายใจ
    E
    จะไม่ขอแก้แค้น แต่ขอแช่งเธอเอาไว้
    A C#m Bm
    *ให้ตกน้ำ ตกรถ ตกเรือ ตกท่าน้ำ ตกเครื่องบิน ตกโต๊ะ ตกเตียง ตกตู้ ตกสอบ สอบตก
    E A C#m
    ให้คางคกกัด ให้งูรัด ให้โดนพัดลมบาด....มือ บาดนิ้ว และบาดแขน บาดขา สิวขึ้นหน้า ฝ้าขึ้นหลัง ลามขึ้นคอ
    Bm E A
    ยังไม่พอ ขอให้อกหัก ไม่พบรัก ทุกชาติ ทุกชาติไป.....
    A C#m Bm
    เอ่อก็ตอนนี้อะนะ ฉันรู้สึกว่าตัวเป็นbufรู้สึกไม่ค่อยจะสบาย เหมือนโดนเธอสวมเขาจาก คุณเธอใช่มั้ย
    E A C#m Bm
    เอ่อ..โถ่..ไม่ค่อย.....จะเข้าใจ รูปก็หล่อ พ่อก้อรวย ไอ่ฉันก้อขับเบ็นซ์ แต่มีแฟนสักทีทำไมแสนสุดจะยากเย็น
    E
    คงเป็นเพราะเรานั้นจีบหญิงไม่ค่อยจะเก่งก้อเลยต้องเซ็ง ได้แต่นั่งแช่งเธอ
    (ซ้ำ * )
    A/C#m/Bm/E/A/C#m/Bm/E
    A C#m Bm E
    เซ็ง ต้องเซ็งแบบนี้อีกนานเท่าไหร่ ต้องทำอย่างไรเธอถึงจะพอ ให้ใจ บทสรุปมันอยู่ตรงที่การใช้ ดุลยพินิจและ
    A C#m Bm
    วิจารณญาณทั่วไป อะก้อแบบนี้ละนะ แบบนี้ละว้า ที่เค้าเรียกกันว่าความรักไม่เข้าใครออกใคร สมหวัง ก้อดีใจ
    E
    ผิดหวังก้อนั่งด่า นั่งว่า นอนว่า นั่งแช่งเธอ
    (ซ้ำ *,* )
    สาธุ......

    ถ้าผิดยังงัยก็บอกๆกันได้นะ

    ((อัพเดทคอร์ดกีต้าร์))
1

ขอเชิญร่วมแสดงความคิดเห็นครับ

คลิกที่รูป เพื่อแทรกรูปลงในข้อความ
  • Member :
    username
    password
  • Not a member :
    name
    email