Loading

คอร์ดเพลง แฟนเก่า

ลาบานูน (Labanoon)

อัพโหลดคลิปเพลงนี้ที่คุณ ร้อง/เล่น ด้วยตัวคุณเอง ได้แล้ววันนี้
ระหว่างการทดสอบระบบหากพบข้อผิดพลาด กรุณาแจ้งที่นี่


Em A D Bm
เจอหน้าเธอกี่ครั้ง ฉันก็ยังต้องทน ทำเหมือนไม่มีอะไร ทั้งที่ฉันนั้นอยากขอร้อง
Em F# Bm
ให้เธอเปลี่ยนใจ ให้กลับมาเหมือนวันที่เราเคยรักกัน
Em A D
มองหน้าเธอวันนี้ เธอช่างมีความสุข ไม่เหมือนตอนรักกับฉัน
Bm Em F# Bm
เขาที่เป็นคนใหม่ คงเป็นผู้ชายในฝัน เมื่อหมดความสำคัญ ฉันคงต้องทำใจ

Em Bm
* แค่คนที่เธอหลงมา เผลอใจผูกพัน ฉันเป็นได้เพียงเท่านั้น
F# Bm
ไม่มีความหมาย คงต้องยอมรับ ทำอะไรไม่ได้

Em A D Bm
** อยากบอกว่ายังรัก ยังคิดถึงเธอ ทุกๆครั้งที่เจอ ฉันก็อยากให้เข้าใจ
Em A D F#
แต่มันก็เท่านั้น ฉันรู่ว่าสายไป เพราะว่าถึงยังไง เธอก็คงเลือกเขา
Em F# Bm
ฉันคงเป็นได้แค่ แฟนเก่า ที่ต้องเจียมตัว

Instru : A/Bm ( 2time )
G/A/Bm

( ซ้ำ * )

Em F# Bm
ฉันคงเป็นได้แค่ แฟนเก่า ที่ต้องเจียมตัว
Em F# Bm
ฉันคงเป็นได้แค่ แฟนเก่า ที่ยังรักเธอ
ส่งเพลงนี้ให้เพื่อน
วันที่โพสต์ : 25 ม.ค.2546,13:45น.
จำนวนผู้ชม : 522862 คน / แสดงความคิดเห็น : 152 ครั้ง
โพสต์โดย


จาก: เว็บมาสซาเตอร์
เข้าร่วม: 9 ปีก่อน
เพลง: 0
โพสต์: 217
เพลงแนะนำ
เพลงฮิต
เลือกแสดงเฉพาะ :

  • โอF4เชียงราย
    Guest
  • 14 ส.ค.2547,20:29น.
    intro
    
    1)--3--2--0--2--3--3--2--0---------------------------------------------------
    2)--------------------------------2--3--3--2---------------------
    3)-----------------------------------------------4--2-------------

    ชัว ๆ ๆ ๆ ๆ

    ((อัพเดทคอร์ดกีต้าร์))
  • โอF4เชียงราย
    Guest
  • 14 ส.ค.2547,20:29น.
    intro
    1)--3--2--0--2--3--3--2--0---------------------------------------------------
    2)--------------------------------2--3--3--2---------------------
    3)-----------------------------------------------4--2-------------

    ชัว ๆ ๆ ๆ ๆ

    ((อัพเดทคอร์ดกีต้าร์))
  • โอF4เชียงราย
    Guest
  • 14 ส.ค.2547,20:37น.
    intro
    1)--3--2--0--2--3--3--2--0---------------------------------------------------
    2)--------------------------------2--3--3--2---------------------
    3)-----------------------------------------------4--2--4-----------

    อันนี้ชัวกว่า (ลืมดู!!!)


    ((อัพเดทคอร์ดกีต้าร์))
  • เต้ Mr GALON...
    Guest
  • 26 ม.ค.2548,20:40น.
    Intro จริงอะเล่นกีต้าร์ 2 ตัวพร้อมเบส ให้กีต้าร์ตัวหนึ่งเกา อีกตัว Solo
    1)----2--3--0--2--3-----3--2--0-------------------------------3--2-----------
    2)-----------------------0-----------3--2--2--3--2----------------------3------
    3)------------------------------------------------------4--2--4-------------------
    4)----------------------------------------------------------------------------------
    5)----------------------------------------------------------------------------------
    6)----------------------------------------------------------------------------------
  • ...
    Guest
  • 12 ธ.ค.2548,22:18น.
    1)----3--2--0--2--3-----3--2--0-------------------------------3--2-----------
    2)-----------------------0-----------3--2--2--3--2--0---------------------3----
    3)----------------------------------------------------------2--4-------------------
    4)----------------------------------------------------------------------------------
    5)----------------------------------------------------------------------------------
    6)----------------------------------------------------------------------------------
  • itachi
    Guest
  • 12 ก.ย.2549,05:13น.
    Solo


    6>----------------------------------------------------------------------------------------------------------
    5>----------------------------------------------------------------------------------------------------------
    4>----------------------------------------------------------------------------------11-9-9h11------9--
    3>----9-9-11-13------9-9---13-----9-9-11-13-----9h11-9---13-11-9----------------9------9
    2>----------------------------12------------------------------------12-----------------------------------
    1>-----------------------------------------------------------------------------------------------------------


    6>----------------------------------------------------------------------------------------------------------
    5>----------------------------------------------------------------------------------------------------------
    4>---/-7---4-6-------------------------------------------------------------------------------------------
    3>--------------------------/-9h11-----------------------------------------------------------------------
    2>------------------------------------9s10-12--12-----------------------------------------------------
    1>----------------------------------------------------12-12--12-11--11h12-11-15^15^15------



    6>-----------------------------------------------------------------------------------------------------------
    5>------------------------------------------------------------------------------------------------------------
    4>---------------------------------------------------------------------------------16--/-14-16-18-19--
    3>------------------------------------------16-16----14h16-14-13h14-13------------------------16
    2>--------17-17--------16h17-16-14------------------------------------------------------------------
    1>----19----------------------------------------------------------------------------------------------------



    6>---------------------------------------------------------------------------|
    5>---------------------------------------------------------------------------|
    4>------18---14-16-18--------------------------------------------------|
    3>-------------------------14-16-18--------------------------------------|
    2>-------------------------------------16-17-19--------------------------|
    1>--------------------------------------------------16-17-19^^---------|


    ใช่ฉันหรือปล่าว กะลา
    รักฝนที่สุดเลย
  • สาวก LaBanooN
    Guest
  • 7 ต.ค.2549,04:24น.
     intro    
    E |----2-3-0-2-3--3-2-0---------------------3-2--------------------------------
    B |----------------0------3-2-2--3-2--------------3------------------------------
    G |----------------------------3--3------4-2-4--------4----------------------------

    ผมว่าอันนี้ ชัว นะคับ
  • NaZe
    Guest
  • 13 มี.ค.2550,15:14น.


    -----------------------------------
    ----------------6--------6/7-------67/9-----79
    -----7--7--9-------9-------------------------
  • โบ๊ท ส.ย.61
    Guest
  • 18 พ.ย.2550,11:35น.


    (1)-----------------------------------------------------------------------------------------------------
    (2)-----7 7 ^ 8 ^ 7-------7-- 8----------------8--7-------------------------------------------------
    (3)-----------------------9--------------0-----------------9--7-^-9-^7--6------6--7--6--4--3--4--
    (4)---------------------------------------------9---------------------------------8-----------------------
    (5)-----------------------------------------------------------------------------------------------------
    (6)-----------------------------------------------------------------------------------------------------

    (1)-----------------------------------------------------------------------------------------------------
    (2)-----7------------------------------------------------------------------------------------------------
    (3)--------7----- 4---3--4-----------------------------------------------------------------------------------(4)----------------------------------------------------------------------------------------------
    (5)-----------------------------------------------------------------------------------------------------
    (6)-----------------------------------------------------------------------------------------------------
    ลองดูนะ ผมเเกะเอง ติ ชม กันได้
  • 22 ก.ย.2557,01:35น.
    Em               A                        D
    	เจอหน้าเธอกี่ครั้ง ฉันก็ยังต้องทน ทำเหมือนไม่มีอะไร
                  Bm                          Em
    ทั้งที่ฉันนั้นอยาก ขอร้องให้เธอเปลี่ยนใจ
                         F#             Bm
    ให้กลับมาเหมือนวันที่เราเคยรักกัน
                     Em                 A
    มองหน้าเธอวันนี้ เธอช่างมีความสุข
                            D
    ไม่เหมือนตอนรักกับฉัน
                   Bm                   Em
    เขาที่เป็นคนใหม่ คงเป็นผู้ชายในฝัน
                        F#                Bm
    เมื่อหมดความสำคัญฉันคงต้องทำใจ
                                Em
    	* แค่คนที่เธอหลงมาเผลอใจผูกพัน
        Bm
    ฉันเป็นได้เพียงเท่านั้นไม่มีความหมาย
             F#              Bm
    คงต้องยอมรับ...ทำอะไรไม่ได้
                                         Em             A
    	** อยากบอกว่ายังรัก ยังคิดถึงเธอ
                 D                   Bm
    ทุกๆครั้งที่เจอ ฉันก็อยากให้เข้าใจ
                 Em         A
    แต่มันก็เท่านั้น ฉันรู้ว่าสายไป
                     D                  F#
    เพราะว่าถึงยังไง เธอก็คงเลือกเขา
                  Em         F#           Bm
    ฉันคงเป็นได้แค่...แฟนเก่า ที่ต้องเจียมตัว
    
                       (ซ้ำ * / **)
    
    	             Em     F#               Bm
    	ฉันคงเป็นได้แค่...แฟนเก่า ที่ต้องเจียมตัว
                  Em      F#          Bm
    ฉันคงเป็นได้แค่...แฟนเก่า ที่ยังรักเธอ
1

ขอเชิญร่วมแสดงความคิดเห็นครับ

คลิกที่รูป เพื่อแทรกรูปลงในข้อความ
  • Member :
    username
    password
  • Not a member :
    name
    email