Loading

ŧ

ʡ

ѾŴԻŧس ͧ/ µǤسͧ ѹ
ҧ÷ͺкҡͼԴҴ س駷
ͨ ˹ҵ ҧѹ ״ͧѹ ͡ʩѹѡ˹ 
ҤҪͺ ʹѡҡ Դѹѡ˹

**鹷ҧͧҵҧѹ ҽѹͧѹԴԹ ºԹ
Ҥͧ Һ.. »ͧ

*ҩѹͺ áҺ͡ ͹鹨͡ ҹ͡ҧѹ
˹ҽѹ繨ԧ Ẻѹ ҴԴѧ ԧ
ǹŴ Full Song
*424243034176584
*424243034176584
ǹŴ Truetone
*424218034176584
*424218034176584
*424218034176584
ǹŴ Poly
*424214034176584
*424214034176584
*424214034176584
ǹŴ Mono
*424211034176584
*424211034176584
*424211034176584
* ѵҤҺԡôǹŴ Fullsong, Truetone, Poly, Mono : 35 ҷ/ŧ
ŧ͹
ѹʵ : 16 ..2548,14:59. 203.188.16.185
ӹǹ : 564233 / ʴԴ : 165
ʵ


ҡ: F16FALCON
: 9 ա͹
ŧ: 0
ʵ: 9
ŧй
ŧԵ
͡ʴ੾ :

  • ͹ͧѹ Ϩѹ
    Guest
  • 20 ..2548,21:51.
    E----------------------------------------
    
    B----------------------------------------
    G----------------------------------------
    D---------2-----------------------------
    A-------2---2-----4-~-5-~--4--2--------
    E-----0-----------------------------------

  • ͹ͧѹ Ϩѹ
    Guest
  • 20 ..2548,21:51.
    E----------------------------------------
    B----------------------------------------
    G----------------------------------------
    D---------2-----------------------------
    A-------2---2-----4-~-5-~--4--2--------
    E-----0-----------------------------------

  • ԹԨ
    Guest
  • 21 ..2548,16:50.
                     F         G     Em                      Am    Dm                     G                             C    C7 
    *ҩѹͺ áҺ͡ ͹鹨͡ ҹ͡ҧѹ
    F G Em Am Dm G C
    ˹ҽѹ繨ԧ Ẻѹ ҴԴѧ ԧ

    ¿ѧ-_-"
  • XBOX
    Guest
  • 23 ..2548,12:24.
     : ʡ 

    intro : Em , Em , Em
    Am D Bm Em Am D G
    ͨ ˹ҵ ҧѹ Դͧѹ ͡ʩѹѡ˹
    Am D Bm Em Am Ebdim Em
    Ҫͺ ʹѡҡ Դѹѡ˹
    Am D Bm Em Am D( Ebdim) G( Em)
    * 鹷ҧͧҵҧѹ ѹͧѹԴԹ ºԹ

    Am D Bm Em Am Ebdim Em
    ͧ Һ »ͧ

    Am D Bm Em Am D
    ** ҩѹͺ á Һ͡ ͹鹨͡ ҹ͡
    G Am D Bm Em Am
    ҧѹ () ˹繨ԧ Ẻѹ ҴԴ
    Ebdim Em
    ѧ ԧ

    Solo : Am , D , Bm , Em , Am , D , G , Am , D , Bm , Em , Am , Ebdim , Em
    ( **,*,**)

    Em Em Em

  • ǪԷ ش
    Guest
  • 23 ..2548,17:27.
     : ʡ 

    intro : Am , Am , Am
    F G Em Am F G C
    ͨ ˹ҵ ҧѹ Դͧѹ ͡ʩѹѡ˹
    F G Em Am Dm G C C7
    Ҫͺ ʹѡҡ Դѹѡ˹
    F G Em Am Dm G C
    * 鹷ҧͧҵҧѹ ѹͧѹԴԹ ºԹ

    F G Em Am Dm G C
    ͧ Һ »ͧ

    F G Em Am Dm G
    ** ҩѹͺ á Һ͡ ͹鹨͡ ҹ͡
    C C7 F G Em Am Dm
    ҧѹ () ˹繨ԧ Ẻѹ ҴԴ
    C G
    ѧ ԧ

    Solo : /F G/Em Am/F G/Em Am/Dm G/C C7/
    ( **,*,**)

    Am Am Am

    ѹͧѺͶ١ּԴСѹ-_-"
  • ǪԷ ش
    Guest
  • 23 ..2548,17:37.
     : ʡ 

    intro : Am , Am , Am
    F G Em Am Dm G C
    ͨ ˹ҵ ҧѹ Դͧѹ ͡ʩѹѡ˹
    F G Em Am Dm G C C7
    Ҫͺ ʹѡҡ Դѹѡ˹
    F G Em Am Dm G C
    * 鹷ҧͧҵҧѹ ѹͧѹԴԹ ºԹ

    F G Em Am Dm G C
    ͧ Һ »ͧ

    F G Em Am Dm G
    ** ҩѹͺ á Һ͡ ͹鹨͡ ҹ͡
    C C7 F G Em Am Dm
    ҧѹ () ˹繨ԧ Ẻѹ ҴԴ
    C G
    ѧ ԧ

    Solo : /F G/Em Am/Dm G/C/Em Am/Dm G/C C7/
    ( **,*,**)

    Am Am Am

    ¿ѧͧͨж١ŧе
  • ͹
    Guest
  • 9 ..2548,18:09.
     : ʡ 

    intro : Em , Em , Em
    Am D Bm Em Am D G
    ͨ ˹ҵ ҧѹ Դͧѹ ͡ʩѹѡ˹
    Am D Bm Em Am Ebdim Em
    Ҫͺ ʹѡҡ Դѹѡ˹
    Am D Bm Em Am D( Ebdim) G( Em)
    * 鹷ҧͧҵҧѹ ѹͧѹԴԹ ºԹ

    Am D Bm Em Am Ebdim Em
    ͧ Һ »ͧ

    Am D Bm Em Am D
    ** ҩѹͺ á Һ͡ ͹鹨͡ ҹ͡
    G Am D Bm Em Am
    ҧѹ () ˹繨ԧ Ẻѹ ҴԴ
    Ebdim Em
    ѧ ԧ

    Solo : Am , D , Bm , Em , Am , D , G , Am , D , Bm , Em , Am , Ebdim , Em
    ( **,*,**)

    Em Em Em

  • 11
    Guest
  • 23 ..2548,17:18.
    ѹյ俿Ҥ׹ҹ 
    e----------------------------------------
    B----------------------------------------
    G----------------------------------------
    D---------2-----------------------------
    A-------2---2-----4-~-5-~--4--2--------
    E-----0-----------------------------------

    e------------------------------------10-----------------------------------------------------------------------
    B--12-10-10-12-10-----------------10-12------10-10-12-10--------------------------------------
    G-----------------------9-11-9-7--------------12-------------------12-11---11-9-7-9---------------
    D---------------------------------------------------------------------------------------------9-9------------
    A--------------------------------------------------------------------------------------------------------------
    E--------------------------------------------------------------------------------------------------------------

    e------------------------------------10----------------------------------------------------------------------
    B--12-10-10-12-10-----------------10-12------10-10-12-10--------------------------------------
    G-----------------------12-11-9-7--------------12-----------------12-11-12-11-9-------------------
    D--------------------------------------------------------------------------------------------------------------
    A--------------------------------------------------------------------------------------------------------------
    E--------------------------------------------------------------------------------------------------------------

    e----------------------------------------
    B----------------------------------------
    G----------------------------------------
    D---------2-----------------------------
    A-------2---2-----4-~-5-~--4--2--------
    E-----0-----------------------------------
    ѹ
  • Interest`
    Guest
  • 3 ..2548,12:03.
     : ʡ 

    intro : Em , Em , Em
    Am D Bm Em Am D G
    ͨ ˹ҵ ҧѹ Դͧѹ ͡ʩѹѡ˹
    Am D Bm Em Am Ebdim Em
    Ҫͺ ʹѡҡ Դѹѡ˹
    Am D Bm Em Am D( Ebdim) G( Em)
    * 鹷ҧͧҵҧѹ ѹͧѹԴԹ ºԹ

    Am D Bm Em Am Ebdim Em
    ͧ Һ »ͧ

    Am D Bm Em Am D
    ** ҩѹͺ á Һ͡ ͹鹨͡ ҹ͡
    G Am D Bm Em Am
    ҧѹ () ˹ҽѹ繨ԧ Ẻѹ ҴԴ
    Ebdim Em
    ѧ ԧ

    Solo : Am , D , Bm , Em , Am , D , G , Am , D , Bm , Em , Am , Ebdim , Em
    ( **,*,**)

    Em Em Em

  • &硼
    Guest
  • 22 ..2549,16:14.
    TADŧФѺ

    Am D Bm Em G
    1-0----------0--------/2-----------2--------/2--------2-------/0----------0-------/3----------3
    2----1--------------1-/-----3----------3----/-----3-------3---/----0---------0----/-----0--------0
    3--------2-------2----/--------2------------2/-------4--------4/-------0---------0-/--------0------0
    4----------------------/0----------------------/-------------------/--------------------/----------------
    5-0--------------------/-----------------------/0-----------------/2------------------/---------------
    6-----------------------/-----------------------/-------------------/--------------------/3-------------
    ж١ФҺҡ
1

ԭʴԴ繤Ѻ

ԡٻ áٻŧ㹢ͤ
  • Member :
    username
    password
  • Not a member :
    name
    email