Loading

คอร์ดเพลง ใจสั่งมา

โลโซ

อัพโหลดคลิปเพลงนี้ที่คุณ ร้อง/เล่น ด้วยตัวคุณเอง ได้แล้ววันนี้
ระหว่างการทดสอบระบบหากพบข้อผิดพลาด กรุณาแจ้งที่นี่
Intro : G / C (2times)


G C
หากว่าเธอผ่านมาได้ยิน เพลงนี้
G D
คาดว่าเธอก็คงรู้ดีว่าเป็นฉัน
C
มอบให้เธอคนเดียว
Bm Em
อาจไม่เกี่ยวแต่สำคัญ
Am C D
เพราะฉันนั้นอยากให้เธอได้ฟัง

G
ที่เฝ้าแต่โทร
C
โทรไปหาเธอเรื่อยเปื่อย
G D
เหนื่อยก็ยอมก็ใจชอบเธอไม่เบา
C
แต่ใจเจ้ากรรมไม่รู้เลย
Bm Em
ว่าเธอไม่ชอบเรา
Am D G/G7
ไม่สน และไม่เอา ไม่อยากคุย

Am D
* ก็เลยมาร้องเพลงบอก
Bm Em
แค่อยากให้เธอนั้นเข้าใจ
Am D G/G7
ไอ้สิ่งที่ฉันทำลงไป ใจสั่งมา
Am D
อย่าโกรธเลยนะคนดี
Bm Em
ยกโทษให้ฉันนะแก้วตา
Am D G/D
คราวหลังจะไม่มา จะไม่โทร

Instru : G / C / G / D / C / Bm / Em / Am / D / G / G7

( ซ้ำ * )

G C
แหละสุดท้ายที่ในหัวใจ มันร่ำร้อง
G D
อยากจะมองจะมองหน้าเธอ อีกสักที
C Bm
ก่อนจะลาเธอไป คนใจดำหน้าตาดี
Am D G
ขอโทษเธอสักทีจากหัวใจ
C Bm Em
แหละมีหนึ่งคำ ที่ยังค้างข้างใน
Am D G
คำพูดลูกผู้ชาย ฉันชอบเธอ
ดาวน์โหลด Full Song
กด *424243006236584
กด *424243006236584
ดาวน์โหลด Truetone
กด *424218006236584
กด *424218006236584
กด *424218006236584
ดาวน์โหลด Poly
กด *424214006236584
กด *424214006236584
กด *424214006236584
ดาวน์โหลด Mono
กด *424211006236584
กด *424211006236584
กด *424211006236584
* อัตราค่าบริการดาวน์โหลด Fullsong, Truetone, Poly, Mono : 35 บาท/เพลง
ส่งเพลงนี้ให้เพื่อน
วันที่โพสต์ : 12 ม.ค.2547,22:43น.
จำนวนผู้ชม : 976757 คน / แสดงความคิดเห็น : 109 ครั้ง
โพสต์โดย


จาก: Zull
Guest
เพลงแนะนำ
เพลงฮิต
เลือกแสดงเฉพาะ :

  • เด็ก น.ว.
    Guest
  • 2 มี.ค.2547,22:44น.
    อยากได้Tabงะคับ   
    ((อัพเดทคอร์ดกีต้าร์))
  • เด็ก น.ว.
    Guest
  • 2 มี.ค.2547,22:44น.
    อยากได้Tabงะคับ   
    ((อัพเดทคอร์ดกีต้าร์))
  • กอล์ฟ คนเดิม
    Guest
  • 22 เม.ย.2547,21:35น.
    solo เปนหมดแล้วคร๊าบ แต่ลืมทุดครั้งเลย ก่อนที่จามาเล่น วันหลังเอามาหั้ยคร๊าบ
    ((อัพเดทคอร์ดกีต้าร์))
  • K.J.Boy
    Guest
  • 30 ก.ค.2547,03:30น.
    ท่อน Intro
    1|-----------------------------------------------------------
    2|-----------------------------------------------------------
    3|---------------------4-------4---5----4----------------
    4|------------5---7-------7-------------------------------
    5|-------------------------------------------------5-----7-
    6|-----------------------------------------------------------
    เล่น 2 ครั้ง

    ท่อน SOLO
    1|-----------------------------------------------------------------------------
    2|----------------12-----------12-----13------12-------------------------
    3|-12----14-----------14---------------------------------------------------
    4|-------------------------------------------------------------12-----14------
    5|------------------------------------------------------------------------------
    6|-------------------------------------------------------------------------------

    1|------------------------------------------------------------------------------------------------
    2|-----------------12----------12-----13-----12-------------------12----------------------
    3|-12----14----------14-----------------------------14-----12----------14-----14----
    4|--------------------------------------------------------------------------------------------------
    5|-------------------------------------------------------------------------------------------------
    6|------------------------------------------------------------------------------------------------

    1|---------------------------------------------------------------------------------------------------------
    2|---------------------------------------------------------------------------------------------------------
    3|-------------------------------------------------12----------------------12---14----12------------
    4|-12---12---12~14----14~15-----15----------15---14---15---------------------15--15-
    5|----------------------------------------------------------------------------------------------------------
    6|----------------------------------------------------------------------------------------------------------

    1|---------------------------------------------------------------------------------13~~15~~~~~-
    2|------------------------------------------------------------------------12--13-----------------
    3|-12---14--15---14----12----------------------------------12-----------------------------
    4|------------------------------------15---15-----14--15--------------------------------------
    5|---------------------------------------------------------------------------------------------------
    6|--------------------------------------------------------------------------------------------------
    ((อัพเดทคอร์ดกีต้าร์))
  • K.J.Boy
    Guest
  • 30 ก.ค.2547,03:36น.
    แกะสุดๆแล้วครับ ทำได้แค่เนี้ย อาจผิดบ้างคงไม่ว่ากัน  
    ถ้าผิดตรงไหนหรือมีอะไรเพิ่มเติมก็ขอคำชี้แนะด้วยครับ
    เพิ่งแกะเป็นครั้งแรกก็เป็นเงี๊ยะแหละ
    ((อัพเดทคอร์ดกีต้าร์))
  • tamkai 306
    Guest
  • 8 ต.ค.2548,20:25น.
    Solo

    5; ---5-7-9-7-9-10-9
    6; ------------------------5-7

    5; --5-7-9-7-9-10-9--7-5/9-7-7-7-----------4-5/7-5-4-5-7/9-7-5-5-7-9-10-9-7-5-5-4-5
    6; --------------------------------------- 5-5-5-7

    4; --7-9
    3; -------7-9
    2; -------------^8
  • ***คนรักเสียงกีต้า***
    Guest
  • 9 ก.ค.2549,19:48น.
    solo:
    (4)-------5-7-9-7-9-10-9~------------------5-7-9-7-9-10-9~-
    (5)--------------------------------5-5-5/7

    (4)-------7-5-7/9-7-7-7------------------4-5-7-5-4h5p4-5-7-9-7-7/5-5^-7-9-7-7/5-4-5
    (5)---------------------------5-5-5-5h7-7

    (3)------4-5-7
    (2)-------------5-8^


    มันไม่น่าจะเพี้ยนนะครับ เพราะคนทั้ง 2 คนช่วยกันแกะ นะไม่น่าเพี้ยน ผมกะว่าจะเอาไปขึ้นเล่นงานโรงเรียนน่ะ
  • คนรักเสก
    Guest
  • 6 ก.ย.2549,03:24น.
    (3)------4-5-7
    (2)-------------5-8^
    ตรงนี้ผิดนะครับ ต้องเป็นแบบนี้ครับ
    (4)------5-9
    (3)------------7-9
    (2)------------------8~
    ลองเอาไปเล่นกันดู เล่นเร็วหน่อยนะครับ
1

ขอเชิญร่วมแสดงความคิดเห็นครับ

คลิกที่รูป เพื่อแทรกรูปลงในข้อความ
  • Member :
    username
    password
  • Not a member :
    name
    email