Loading

คอร์ดเพลง ไม่ให้เธอไป

โปเตโต้ (Potato)

อัพโหลดคลิปเพลงนี้ที่คุณ ร้อง/เล่น ด้วยตัวคุณเอง ได้แล้ววันนี้
ระหว่างการทดสอบระบบหากพบข้อผิดพลาด กรุณาแจ้งที่นี่
Print


ไม่ให้เธอไป
Artist : โปเตโต้

Intro : Em D C Bm Am7 G Am7 G

Em D C Bm
* จากนาที. . ที่เธอ บอกลาจากฉันไป
Am7 G
เพราะอะไร? เหตุใด?. . ไม่เข้าใจ
Am7 G
ว่าทำไมต้องมาทิ้งกัน. . .
Em D C Bm
อยากจะดึง. . รั้งเธอ กอดเธอให้เนิ่นนาน
Am7 G
เพื่อให้ความทรงจำของวันวาน
Am7 D7sus4/D7
ทำให้เราได้กลับมารักกัน. .

Em G C G Em
** ไม่ให้เธอไป. . ต้องเสียอะไร แค่ไหน ยังไง เท่าไร
G C G Em
เสียเธอไป. . .ไม่รู้จะทนอ้างว้าง ได้นานเท่าไร
G C G Em
ไม่ให้เธอไป. . บอกฉันสักคำ. . แค่ไหนที่เธอต้องการ
G C G
ฉันจะทำ. . เพื่อขอให้เธอเปลี่ยนใจ
Em D
แค่เพียงเธอไม่ไป. . .รักใคร

C Bm Am7 G
*** ไม่หวังอะไร ให้ใจทั้งใจของเธอ. . มีฉัน
Am7 D7sus4/D7 Em
ก็รู้ดีวันนี้. .สายเกินไป

ฮือ ฮือ. . D C Bm Am7 G Am7 G

( ซ้ำ * , ** )

Solo : C Bm Am7 G Am7 G

( ซ้ำ ** , *** )

Ending : D C Bm Am7 G Am7 G


http://www.musicatm.com/thai/คอร์ดเพลง-ไม่ให้เธอไป-โปเตโต้-(Potato)-531.html
ดาวน์โหลด Full Song
กด *424243161536584
กด *424243161536584
ดาวน์โหลด Truetone
กด *424218161536584
กด *424218161536584
กด *424218161536584
* อัตราค่าบริการดาวน์โหลด Fullsong, Truetone, Poly, Mono : 35 บาท/เพลง
ส่งเพลงนี้ให้เพื่อน
วันที่โพสต์ : 15 ก.ย.2546,07:59น.
จำนวนผู้ชม : 485331 คน / แสดงความคิดเห็น : 108 ครั้ง
โพสต์โดย


จาก: NV pooh
Guest
เพลงแนะนำ
เพลงฮิต
เลือกแสดงเฉพาะ :

  • unknow
    Guest
  • 15 ก.ย.2546,09:25น.
    ว้าว.....ถูกใจครับเพลงนี้ 
    

    เห็นคุณnoomขอไว้ในกระดานบอร์ดตั้งแต่วันก่อน พอดีหาได้แค่เพลงชูบีดูวับ กับเพลงแค่นั้นเอง ของsuper
    เลยแกะลงไปแค่2เพลง วันนี้เจอเพลงนี้แล้ว ฟังดูก็เจ๋งดี เลยรีบแกะมาลงให้

    ผมลงคอร์ดที่ซาว์ดคลุมๆนะ เพราะในเพลงมันจะเป็นLine เกากีต้าร์ค่อนข้างจะชัด ซึ่งเวลาจับคอร์ดมันจะวางนิ้วไม่เต็มคอร์ดนัก
    อีก2-3วัน ถ้าว่างจะลงTab ตรงท่อน Intro ให้ครับ แกะไว้แล้วแต่เวลาเขียนนี่มันยากมาก ไม่ค่อยคล่อง ต้องใช้เวลาสักนิด
    ผมว่าเล่นไม่ยากนะ ชัดดีด้วย

    เพลงนี้วางแต่ละท่อนแปลกไปจากเดิมที่เราพบทั่วๆไปนะครับ เนื้อร้องจะมีทั้งหมด3ท่อน ร้องวนกันไป กับท่อนSoloอีก2ท่อน

    ขึ้นIntroมาด้วยเสียงเกากีต้าร์ใสๆ ชัดๆ ในกลุ่มคอร์ด
    Em D C Bm Am7 G Am7 G
    ซึ่งใช้เป็นแกนหลักของเพลงเลย ทั้งท่อนเนื้อร้องแรก และท่อนSoloด้วย แพทเทินที่ใช้เกาก็เหมือนกัน

    เข้าท่อน2 (**) ก็วนอยู่ 3คอร์ดคือ C G Em มีทริ๊คอยู่2เรื่องคือ
    1...จะมีเสียงโน๊ตตัวG ของสาย1ช่อง3 ดังตลอดอยู่ทุกคอร์ด นั่นคือเวลาเล่น ก็เอานิ้วก้อยอุดกดสาย1ช่อง3แช่ไว้ตลอดทั้งท่อนเลย
    นิ้วที่เหลือก็โยกไปจับคอร์ด C G Em ไป
    2...ตอนเปลี่ยนคอร์ดจาก G ไปEm อย่าลืมดีดสาย6ช่อง2ให้ได้ซาว์ดของF# ส่งไล่ไปด้วย

    จากนั้นผ่านท่อน3(***) เข้าท่อนSoloแรก ฮือ..ฮือ... เสียงLine กีต้าร์Soloลอยมาจากลำโพงซ้ายข้างเดียวครับ
    ส่วนตัวแล้วผมชอบการบันทึกเสียงแบบนี้มาก มันแสดงถึงความตั้งใจทำงานของศิลปิน
    เวลาฟังแล้วรู้สึกเพลงมันมีมิติดีด้วย มันลอยๆมา มีเสน่ห์ดี
    Line โซโลก็เพราะดี ปั้นสุดฤิทธิ์เป็นตัวๆ

    จบแล้วซ้ำตั้งแต่ต้นอีกที แล้วSoloท่อนที่2 คราวนี้ซาว์ดรกไปหน่อย และเสียงแหลมแสบแก้วหูมาก ไม่ค่อยโดน
    ซ้ำท่อน2กับ3อีกที เล่นเหมือนเดิม จบที่ซาว์ดเกากีต้าร์ใสๆเหมือนIntro


    ((อัพเดทคอร์ดกีต้าร์))
  • unknow
    Guest
  • 15 ก.ย.2546,09:25น.
    ว้าว.....ถูกใจครับเพลงนี้ 
    

    เห็นคุณnoomขอไว้ในกระดานบอร์ดตั้งแต่วันก่อน พอดีหาได้แค่เพลงชูบีดูวับ กับเพลงแค่นั้นเอง ของsuper
    เลยแกะลงไปแค่2เพลง วันนี้เจอเพลงนี้แล้ว ฟังดูก็เจ๋งดี เลยรีบแกะมาลงให้

    ผมลงคอร์ดที่ซาว์ดคลุมๆนะ เพราะในเพลงมันจะเป็นLine เกากีต้าร์ค่อนข้างจะชัด ซึ่งเวลาจับคอร์ดมันจะวางนิ้วไม่เต็มคอร์ดนัก
    อีก2-3วัน ถ้าว่างจะลงTab ตรงท่อน Intro ให้ครับ แกะไว้แล้วแต่เวลาเขียนนี่มันยากมาก ไม่ค่อยคล่อง ต้องใช้เวลาสักนิด
    ผมว่าเล่นไม่ยากนะ ชัดดีด้วย

    เพลงนี้วางแต่ละท่อนแปลกไปจากเดิมที่เราพบทั่วๆไปนะครับ เนื้อร้องจะมีทั้งหมด3ท่อน ร้องวนกันไป กับท่อนSoloอีก2ท่อน

    ขึ้นIntroมาด้วยเสียงเกากีต้าร์ใสๆ ชัดๆ ในกลุ่มคอร์ด
    Em D C Bm Am7 G Am7 G
    ซึ่งใช้เป็นแกนหลักของเพลงเลย ทั้งท่อนเนื้อร้องแรก และท่อนSoloด้วย แพทเทินที่ใช้เกาก็เหมือนกัน

    เข้าท่อน2 (**) ก็วนอยู่ 3คอร์ดคือ C G Em มีทริ๊คอยู่2เรื่องคือ
    1...จะมีเสียงโน๊ตตัวG ของสาย1ช่อง3 ดังตลอดอยู่ทุกคอร์ด นั่นคือเวลาเล่น ก็เอานิ้วก้อยอุดกดสาย1ช่อง3แช่ไว้ตลอดทั้งท่อนเลย
    นิ้วที่เหลือก็โยกไปจับคอร์ด C G Em ไป
    2...ตอนเปลี่ยนคอร์ดจาก G ไปEm อย่าลืมดีดสาย6ช่อง2ให้ได้ซาว์ดของF# ส่งไล่ไปด้วย

    จากนั้นผ่านท่อน3(***) เข้าท่อนSoloแรก ฮือ..ฮือ... เสียงLine กีต้าร์Soloลอยมาจากลำโพงซ้ายข้างเดียวครับ
    ส่วนตัวแล้วผมชอบการบันทึกเสียงแบบนี้มาก มันแสดงถึงความตั้งใจทำงานของศิลปิน
    เวลาฟังแล้วรู้สึกเพลงมันมีมิติดีด้วย มันลอยๆมา มีเสน่ห์ดี
    Line โซโลก็เพราะดี ปั้นสุดฤิทธิ์เป็นตัวๆ

    จบแล้วซ้ำตั้งแต่ต้นอีกที แล้วSoloท่อนที่2 คราวนี้ซาว์ดรกไปหน่อย และเสียงแหลมแสบแก้วหูมาก ไม่ค่อยโดน
    ซ้ำท่อน2กับ3อีกที เล่นเหมือนเดิม จบที่ซาว์ดเกากีต้าร์ใสๆเหมือนIntro


    ((อัพเดทคอร์ดกีต้าร์))
  • เซฟครับ
    Guest
  • 22 พ.ย.2546,05:04น.
    ผมงงตรง Tab การเกาท่อน Intro อะครับ ขอลายละเอียดหน่อยครับ 
    ((อัพเดทแหล่งทดลองฟัง)) ((อัพเดทคอร์ดกีต้าร์)) ((ขอคอร์ดกีต้าร์ด้วยครับ))
  • sOlO
    Guest
  • 13 ธ.ค.2546,22:00น.
    เล่นได้เหมือนกันครับ
    ((อัพเดทแหล่งทดลองฟัง))
  • ตั้ม
    Guest
  • 26 ก.พ.2547,12:07น.
      
    ((อัพเดทแหล่งทดลองฟัง))
  • ZipPo
    Guest
  • 4 มิ.ย.2547,20:48น.
    สายกีต้าร์ขาด  เดวแกะINTROให้  ลอเเปป

    ((อัพเดทคอร์ดกีต้าร์))
  • ~นู๋~นุ่น
    Guest
  • 14 มิ.ย.2547,19:41น.
    ช่วยบอกหน่อยค่ะว่า  tab เค้าเล่นกันยังไงหรออ่ะค่ะ
    ((อัพเดทคอร์ดกีต้าร์))
  • ทีนนนนนนนนนนนนนนนน
    Guest
  • 5 พ.ย.2548,19:44น.
    1--3---------3----2---------2--0---------0---3------------------------------------------------------------
    2------0---------------0----------------3-----------------------0---1--------------1----0-----------------
    3----------0--------------0---------0----------------4-----2-------------2-----------------------0--------
    4------------------0-------------------------------4----------------------------2--------------0------------
    5---------------------------------3--------------2--------------------0--------------------------------------
    6--0----------------------------------------------------------------------------------------3----------------
    C Bm Am G
    Am
    1-------------------------------------
    2----------0-----1-------------1----
    3------2--------------0-------------- จบด้วยคอร์ด G
    4---------------------------0--------
    5-----------------0------------------
    6------------------------------------
  • รุต สามเสน
    Guest
  • 9 มิ.ย.2549,16:19น.
    มาแล้วจ้า
    ไม่ให้เธอไป
    Intro
    1.)--1--------------3---2--------------2 | -0----------0----------0
    2.)--------0------------------0---------- | -----------3-----3----------------0
    3.)------------0------------------0------ | -------0-------------0-------2
    4.)----------------------0---------------- | -------------------------------------
    5.)--------------------------------------- | -3---------------2------------------
    6.)--0---------------------------------- | ------------------------------------

    1.)-----------------------------------------0 |-----------------------------------------0
    2.)---0----1-------------1------0-----------------0 |---0-----1------------1----0-------0
    3.)-------------0---------------------0--------2 |---------------0-----------------0
    4.)------------------2------------------------------ |-------------------2-------------
    5.)--------0------------------------------------- |----------0----------------------
    6.)-----------------------3-------------- |-----------------------------3---
    แล้วขึ้นร้อง
    1.)-3---------3----2------------2|-0----------0-------------0---------- |--------------------------------0
    2.)----0----------------0----- |---------3-------3-------------------0 -0----1----------1----0---------------0
    3.)--------0-----------------0 |-----0-----------------0--------2 |----------0-----------------0------2
    4.)-----------------0------------- |------------------------------------- |--------------2---------------------------
    5.)------------------------------- |-3----------------2----------------- |------0-----------------------------------
    6.)-0---------------------- |---------------------------------------- |------------------------3-----------------

    1.)------------------------------------------0 |--------------------0-----------
    2.)-01-------------1-----0-------0--- |-01--------1-------3------2
    3.)------------0-------------------0--- |------------0---------------------
    4.)----------------2------------------- |------------------------0-------0
    5.)-------0--------------------------- |-------0---------------------------
    6.)----------------------------3-------- |------------------------------------ขึ้นท่อนHook
    Solo
    1.)----------------------------------------------------------8--12--12---15-15-15^--
    2.)-------------------------------------------8--10--12----------------------------------
    3.)-----------------------------------7--9-------------------------------------------------
    4.)-------------------------7-----9--------------------------------------------------------
    5.)------------7--10----------------------------------------------------------------------
    6.)--0--3--7------------------------------------------------------------------------------

    1.)-15-------------------------------------------------------------------------------------
    2.)---------------------------------------------------------------------------------8--12-
    3.)-----------4--4/5--5/7---------------------------------4--4/5--7--7/9----------
    4.)------5-5-------------------5\2-------------------5-7-------------------------------
    5.)----------------------------------------------5--7-------------------------------------
    6.)-------------------------------------3--7----------------------------------------------

    1.)-8-10-12-15-17----19^
    ลองเล่นดูนะแกะจากกีตาร์โปร4
    ถ้าเหมือนก็ขอบคุณ
    ถ้าไม่เหมือนก็ขอโทษ
  • มัสเด็กคอนหวัน
    Guest
  • 7 พ.ค.2550,18:52น.

    Em D C Bm
    สาย1 I--0--2--3---------3--I--2----------2--I--0----------0---I----------------0--I
    สาย2 I-------------0---------I------0----------I----------3-------I----3--------------I
    สาย3 I----------------0------I----------0------I------0-----------I----------0--------I
    สาย4 I---------2-------------I--0--------------I-------------------I-------------------I
    สาย5 I------------------------I------------------I--3---------------I----2-------------I
    สาย6 I------------------------I------------------I-------------------I-------------------I



    Am G Am G
    สาย1 I-----------------------I----------0---I-------------------------I------------0----I
    สาย2 I-----0--1--------1---I---0----------I------0--1--------1---I---0-----0-------I
    สาย3 I--2--------0---------I-------0-------I---2--------0----------I------0----------I
    สาย4 I---------------2------I---------------I----------------2-------I------------------I
    สาย5 I---------0------------I---------------I----------0-------------I------------------I
    สาย6 I-----------------------I---3----------I-------------------------I---3-------------I



    ส่วนอันนี้ก็เขียนเฉพาะการวางนิ้วของคอร์ด

    Em D C Bm
    สาย1 I-----3----I-----2----I----------I-----------I
    สาย2 I-----------I----------I-----3----I-----3----I
    สาย3 I----------I-----------I-----------I-----------I
    สาย4 I-----2---I-----------I-----------I-----------I
    สาย5 I----------I-----------I-----3----I-----2----I
    สาย6 I----------I-----------I-----------I-----------I

    Am G Am G
    สาย1 I------------I-----------I-----------I----------I
    สาย2 I------1----I-----------I-----1----I-----------I
    สาย3 I------------I-----------I-----------I----------I
    สาย4 I------2----I-----------I-----2----I-----------I
    สาย5 I------------I-----------I-----------I----------I
    สาย6 I------------I-----3----I-----------I----3-----I

    INTRO


    |--3-------3--2-------2--0-------------0-----------------------0-----------------------------|
    |----3--0-------3--0--------3--5--3--------0--1-----1--0---------0--1-------1--0---0--|
    |-----------------------------------------0---2------2---------2----2-------2-----------2----|
    |--------------------------------------------------------2------------------------2--------------|
    |--------------------------------------------------------------------------------------------------|
    |-------------------------------------------------------------------------------------------------|
  • skoobadragon
    Guest
  • 19 ต.ค.2550,10:44น.


    1|--3-------3--2-------2--0-------------0-----------------------0-----------------------------|
    2|----3--0-------3--0--------3--5--3--------0--1-----1--0---------0--1-------1--0---0--|
    3|-----------------------------------------0---2------2---------2----2-------2-----------2----|
    4|--------------------------------------------------------2------------------------2--------------|
    5|--------------------------------------------------------------------------------------------------|
    6|-------------------------------------------------------------------------------------------------|

    น่าจาใช่น่ะ
  • TON
    Guest
  • 3 เม.ย.2551,23:50น.
    
    
    Intro ครับ ถูก100% ผมรับรองได้ ต้น0867859259***************************************************************************************E|--3----------3-------2---------------2-------------------------0--------------------0------------A|------0---------------------0-----------------3---------3------------3---------------------------D|---------0----------------------0------------------0--------------------------0------------------G|--2-------------------0---------------------------------------------------------------------------B|------------------------------------------------3----------------------2--------------------------E|---------------------------------------------------------------------------------------------------****************************************************************************************************************************************************************************E|-------------------------------------------------------------0---------------------A|----------0---0h1-------------------1-----0---------------------------------------------D|---2--------------------0--------------------------0---------------------------------G|--------------------------------2--------------------------------------------------B|----------------------------------------------3-----------------------------------E|----------------------------------------------------------------------------------************************************************************************************************************************************************************************E|----------------------------------------------------------------------------------A|----------0---0h1-------------------1-----0--------------0-------------------------------D|---2--------------------0--------------------------0---------------------------------G|--------------------------------2--------------------------------------------------B|----------------------------------------------3-----------------------------------E|----------------------------------------------------------------------------------************************************************************************************100%ครับ เชื่อไม่เชื่อเเล้วเเต่ แต่ผมรับประกันได้  ต้น วิชชากร ตรึกตรอง 0867859259 ครับ
  • 14 ธ.ค.2556,12:23น.
    ไม่ให้เธอไป
    Intro:
    / Em D / C Bm / Am G / Am G /

    Em D C Bm
    * จากนาทีที่เธอ บอกลาจากฉันไป
    Am G
    เพราะอะไรเหตุใด ไม่เข้าใจ
    Am G
    ว่าทำไมต้องมาทิ้งกัน

    Em D C Bm
    ** อยากจะดึงรั้งเธอ กอดเธอให้เนิ่นนาน
    Am G
    เพื่อให้ความทรงจำของวันวาน
    Am Dsus4
    ทำให้เราได้กลับมารักกัน

    Em G
    *** ไม่ให้เธอไป
    C G Em
    ต้องเสียอะไร แค่ไหนยังไงเท่าไร
    G
    เสียเธอไป
    C G Em
    ไม่รู้จะทนอ้างว้างได้นานเท่าไร
    G
    ไม่ให้เธอไป
    C G Em
    บอกฉันสักคำ แค่ไหนที่เธอต้องการ
    G C G
    ฉันจะทำ เพื่อขอให้เธอเปลี่ยนใจ

    Em D
    **** แค่ให้เธอไม่ไปรักใคร
    C Bm Am G
    ไม่หวังอะไรให้ใจทั้งใจของเธอมีฉัน
    Am D Em
    ก็รู้ดีวันนี้สายเกินไป

    Instrument:
    / Em D / C Bm / Am G / Am G /

    Repeat * , ** , ***

    Em D
    แค่ให้เธอไม่ไปรักใคร

    Instrument:
    / C Bm / Am G / Am D /

    Repeat *** , ****

    Outro:
    / Em D / C Bm / Am G / Am G / G /
  • 22 ก.ย.2557,01:35น.
    Intro: Em D C Bm Am7 G Am7 G
    
           Em   D          C         G
    จากนาทีที่เธอ บอกลาจากฉันไป
                Am7       G         Am7          G
    เพราะอะไรเหตุใดไม่เข้าใจ ว่าทำไมต้องมาทิ้งกัน
               Em   D      C            G
    อยากจะดึงรั้งเธอ กอดเธอให้เนิ่นนาน
                    Am7       G
    เพื่อให้ความทรงจำของวันวาน
              Am7        D
    ทำให้เราได้กลับมารักกัน
    
       Em       G        C            G          D/Em
    * ไม่ให้เธอไป ต้องเสียอะไรแค่ไหนยังไงเท่าไร
                G    C            G               Em
      เสียเธอไป ไม่รู้จะทนอ้างว้างได้นานเท่าไร
                 G         C          G               Em
      ไม่ให้เธอไป บอกฉันสักคำแค่ไหนที่เธอต้องการ
               G      C               G
      ฉันจะทำเพื่อขอให้เธอเปลี่ยนใจ
                    Em    D
      แค่ให้เธอไม่ไปรักใคร (เย้...เฮ)
             C           Bm         Am7 G
      (ไม่หวังอะไรให้ใจทั้งใจของเธอมีฉัน
            Am7    Dsus4/D
      ก็รู้ดีวันนี้สายเกินไป)
    
    
    (ดนตรี) Em D C  Bm Am7 G Am7 G
    (ซ้ำใหม่ทั้งหมด)
    (ดนตรี) C Bm Am7 G Am7 D
    (ซ้ำ *)
    (ดนตรี) Em D C Bm Am7 G Am7 G
1

ขอเชิญร่วมแสดงความคิดเห็นครับ

คลิกที่รูป เพื่อแทรกรูปลงในข้อความ
  • Member :
    username
    password
  • Not a member :
    name
    email