Loading

คอร์ดเพลง 14 อีกครั้ง

โลโซ

อัพโหลดคลิปเพลงนี้ที่คุณ ร้อง/เล่น ด้วยตัวคุณเอง ได้แล้ววันนี้
ระหว่างการทดสอบระบบหากพบข้อผิดพลาด กรุณาแจ้งที่นี่
ครั้งแรกที่เราได้เจอะกันวันนั้น
เธอเป็นเหมือนฝันที่ฉันตามหา
เมื่อฉันมองเธอ เธอประสานสายตาต่อตา

*จากรอยยิ้มที่เธอส่งมา จากเวลาที่เราใกล้กัน
จับมือเธอไว้ข้างใจฉันแค่นาที

**เธอทำไห้ฉันรู้สึกเหมือนตอน 14
ตอนที่ฉันมีแฟนคนแรก
ลึกๆข้างในมันหวั่นมันไหวแปลกๆ
เธอรู้ไหมฉันเหมือน14อีกครั้ง

อารมณ์แบบนี้มันหายไปสักพัก
เคยมีคนรักกก็โดนเขาหักอกเจ็บปวดแทบตายที่ข้างใน ยังซ้ำฟก ไม่หาย

(*,**)
(*,**)
(**)
เธอรู้ไหมฉันเหมือน14อีกครั้ง
เธอรู้ไหมฉันเหมือน14อีกครั้ง
ดาวน์โหลด Full Song
กด *424243138186584
กด *424243138186584
ดาวน์โหลด Truetone
กด *424218138186584
กด *424218138186584
กด *424218138186584
* อัตราค่าบริการดาวน์โหลด Fullsong, Truetone, Poly, Mono : 35 บาท/เพลง
ส่งเพลงนี้ให้เพื่อน
วันที่โพสต์ : 28 ส.ค.2549,00:46น. 203.150.85.45
จำนวนผู้ชม : 367052 คน / แสดงความคิดเห็น : 211 ครั้ง
โพสต์โดย


จาก: เก้า
เข้าร่วม: 9 ปีก่อน
เพลง: 0
โพสต์: 11
เพลงแนะนำ
เพลงฮิต
เลือกแสดงเฉพาะ :

  • OMAN
    Guest
  • 20 ก.ย.2556,12:24น. 124.122.25.168
    Intro : C Dm Em Dm (2 times)

    C Dm Em Dm
    ครั้งแรกที่เราได้เจอะกัน วันนั้น
    C Dm Em Dm
    เธอเป็นเหมือนฝันที่ฉันตามหา
    C Dm Em Dm C
    เมื่อฉันมองเธอ เธอประสานสายตา ต่อตา ฮืม...

    Am Em
    *จากรอยยิ้มที่เธอส่งมา
    Am Em
    จากเวลาที่เราใกล้กัน
    Am Em G
    จับมือเธอไว้ข้างใจฉัน แค่นาที

    C G Dm
    **เธอทำให้ฉันรู้สึกเหมือนตอนสิบสี่
    C G Dm
    ตอนที่ฉันมีแฟนคนแรก
    C G Dm
    ลึกๆ ข้างในมันหวั่นมันไหวแปลกๆ
    Am G F
    เธอรู้ไหม ฉันเหมือนสิบสี่อีกครั้ง

    C Dm Em Dm
    อารมณ์แบบนี้มันหายไป สักพัก
    C Dm Em Dm
    เคยมีคนรักก็โดนเขาหักอก
    C Dm Em Dm C
    เจ็บปวดแทบตายที่ข้างใน ยังช้ำฟก ไม่หาย เออ...

    (ซ้ำ */**)

    (ดนตรี) C Dm Em Dm (3 times) C Dm Em F

    (ซ้ำ */**/**)
  • OMAN
    Guest
  • 20 ก.ย.2556,12:24น. 124.122.25.168
    Intro : C Dm Em Dm (2 times)

    C Dm Em Dm
    ครั้งแรกที่เราได้เจอะกัน วันนั้น
    C Dm Em Dm
    เธอเป็นเหมือนฝันที่ฉันตามหา
    C Dm Em Dm C
    เมื่อฉันมองเธอ เธอประสานสายตา ต่อตา ฮืม...

    Am Em
    *จากรอยยิ้มที่เธอส่งมา
    Am Em
    จากเวลาที่เราใกล้กัน
    Am Em G
    จับมือเธอไว้ข้างใจฉัน แค่นาที

    C G Dm
    **เธอทำให้ฉันรู้สึกเหมือนตอนสิบสี่
    C G Dm
    ตอนที่ฉันมีแฟนคนแรก
    C G Dm
    ลึกๆ ข้างในมันหวั่นมันไหวแปลกๆ
    Am G F
    เธอรู้ไหม ฉันเหมือนสิบสี่อีกครั้ง

    C Dm Em Dm
    อารมณ์แบบนี้มันหายไป สักพัก
    C Dm Em Dm
    เคยมีคนรักก็โดนเขาหักอก
    C Dm Em Dm C
    เจ็บปวดแทบตายที่ข้างใน ยังช้ำฟก ไม่หาย เออ...

    (ซ้ำ */**)

    (ดนตรี) C Dm Em Dm (3 times) C Dm Em F

    (ซ้ำ */**/**)
  • OMAN
    Guest
  • 20 ก.ย.2556,12:26น. 124.122.25.168
    Intro : C Dm Em Dm (2 times)

    C Dm Em Dm
    ครั้งแรกที่เราได้เจอะกัน วันนั้น
    C Dm Em Dm
    เธอเป็นเหมือนฝันที่ฉันตามหา
    C Dm Em Dm C
    เมื่อฉันมองเธอ เธอประสานสายตา ต่อตา ฮืม...

    Am Em
    *จากรอยยิ้มที่เธอส่งมา
    Am Em
    จากเวลาที่เราใกล้กัน
    Am Em G
    จับมือเธอไว้ข้างใจฉัน แค่นาที

    C G Dm
    **เธอทำให้ฉันรู้สึกเหมือนตอนสิบสี่
    C G Dm
    ตอนที่ฉันมีแฟนคนแรก
    C G Dm
    ลึกๆ ข้างในมันหวั่นมันไหวแปลกๆ
    Am G F
    เธอรู้ไหม ฉันเหมือนสิบสี่อีกครั้ง
    C Dm Em Dm
    อารมณ์แบบนี้มันหายไป สักพัก
    C Dm Em Dm
    เคยมีคนรักก็โดนเขาหักอก
    C Dm Em Dm C
    เจ็บปวดแทบตายที่ข้างใน ยังช้ำฟก ไม่หาย เออ...

    (ซ้ำ */**)
    (ดนตรี) C Dm Em Dm (3 times) C Dm Em F
    (ซ้ำ */**/**)
  • จื้อ
    Guest
  • 28 ส.ค.2549,02:38น.
    จังหวะเกาง่ายๆ

    C D E D
    1.----------0----------0-----------0------------0--------
    2.--------2--2------2--2-------2--2--------2--2-------
    3.----------------------------------------------------------
    4.------------------2----------------------2--------------
    5.-----3--------------------------------------------------
    6.-----------------------------0--------------------------

    เรื่อยๆ ทั้งเพลงง่ายมะ ลองดูนะ
  • TOP MSB
    Guest
  • 28 ส.ค.2549,03:38น.
    จังหวะเกาอินโทรกับ Verse 1 ง้ายๆ
    จับ คอร์ด C ครับ แล้วไล่เกาเอา นิ้วกลางกดบ้างปล่อยบ้าง

    1.-----------0------------0-----------0------------0-------
    2.--------1-----1-----1----1-----1-----1-------1--1-----
    3.------------------------------------------------------------
    4.------------------0-----------2------------0--------------
    5.-----3-----------------------------------------------------
    6.-----------------------------------------------------------

    วนเอาครับเด่วแกะท่อน Verse 2 กับท่อนฮุก ให้สมบูรณ์ก่อนครับจะเอามาลงให้อีก
  • biaszy
    Guest
  • 28 ส.ค.2549,17:11น.
    C             C/D                C/Em     C/D
    ครั้งแรกที่เราได้เจอะกันวันนั้น
    C C/D C/Em C/D
    เธอเป็นเหมือนฝันที่ฉันตามหา
    C C/D C/Em C/D
    เมื่อฉันมองเธอ เธอประสานสายตาต่อตา
    Am Em Am Em
    *จากรอยยิ้มที่เธอส่งมา จากเวลาที่เราใกล้กัน
    Am Em G
    จับมือเธอไว้ข้างใจฉันแค่นาที
    C G F G Am/Bn
    **เธอทำไห้ฉันรู้สึกเหมือนตอน 14
    C G F G Am/Bm
    ตอนที่ฉันมีแฟนคนแรก
    C G F
    ลึกๆข้างในมันหวั่นมันไหวแปลกๆ
    Am G F
    เธอรู้ไหมฉันเหมือน14อีกครั้ง

    C C/D C/Em C/D
    อารมณ์แบบนี้มันหายไปสักพัก
    C C/D C/Em
    เคยมีคนรักก็โดนเขาหักอก
    C C/D C/Em C/Em
    เจ็บปวดแทบตายที่ข้างใน ยังซ้ำฟก ไม่หาย

    เล่นตอนเเรกตาม Tab ของคุณ TOP MSB เเต่ตอนกลางผมไม่เเน่ใจว่าคอร์ดถูกหรือป่าว
    เพราะว่าฟังผ่านๆน่ะคับไม่ได้ตั้งใจ
    คอร์ด Am Bm เล่นเฉพาะคอร์ดเบสนะคับ

    ((ขอคอร์ดกีต้าร์))
  • biaszy
    Guest
  • 28 ส.ค.2549,17:22น.
    C             C/D                C/Em     C/D
    ครั้งแรกที่เราได้เจอะกันวันนั้น
    C C/D C/Em C/D
    เธอเป็นเหมือนฝันที่ฉันตามหา
    C C/D C/Em C/D
    เมื่อฉันมองเธอ เธอประสานสายตาต่อตา
    Am Em Am Em
    *จากรอยยิ้มที่เธอส่งมา จากเวลาที่เราใกล้กัน
    Am Em G
    จับมือเธอไว้ข้างใจฉันแค่นาที
    C G F G Am/Bn
    **เธอทำไห้ฉันรู้สึกเหมือนตอน 14
    C G F G Am/Bm
    ตอนที่ฉันมีแฟนคนแรก
    C G F
    ลึกๆข้างในมันหวั่นมันไหวแปลกๆ
    Am G F
    เธอรู้ไหมฉันเหมือน14อีกครั้ง
    F
    1.-1----3----5----8----5-----3-------1-
    2.-1----3----5----8----5-----3-------1-

    C C/D C/Em C/D
    อารมณ์แบบนี้มันหายไปสักพัก
    C C/D C/Em
    เคยมีคนรักก็โดนเขาหักอก
    C C/D C/Em C/Em
    เจ็บปวดแทบตายที่ข้างใน ยังซ้ำฟก ไม่หาย

    เล่นตอนเเรกตาม Tab ของคุณ TOP MSB เเต่ตอนกลางผมไม่เเน่ใจว่าคอร์ดถูกหรือป่าว
    เพราะว่าฟังผ่านๆน่ะคับไม่ได้ตั้งใจ
    คอร์ด Am/ Bm เล่นเฉพาะคอร์ดเบสนะคับ

  • biaszy
    Guest
  • 29 ส.ค.2549,19:37น.
    คอร์ดท่อนฮุค ของคนที่  20  ถูกเเล้วคับ  ที่ผมลงให้ไม่มีคอร์ด   Dm 
    ขอโทษด้วยนะ
  • นายเม
    Guest
  • 1 ก.ย.2549,21:28น.
    solo : โซโล่ร้อนๆมาแล้วนะคร๊าบ.......
    เมเม่จะพิมพ์เป็นแท็ปให้นะครับเพื่อน ๆ ดูจังหวะตกของห้อง แบ่งเป็นช่วงๆเอาเองนะครับ ( ดูฟิวโซโล่ ผ่อน หนัก- เบา ด้วยนะครับ พี่เสกโซโล่เพลงนี้ได้อารมณ์มาก ๆสุดยอดเลยพี่ )
    1 ------------------------------------------------------------------------------------------------------------
    2 --------------------------------------8p78------10p8/7-8~~/10--------------------------------------------
    3 --------------5-----7p5---7/9------------------------------------------------------------------------
    4 -----5/7-------------------------------------------------------------------------------------------------
    5 --------------------------------------------------------------------------------------------------------
    6 -------------------------------------------------------------------------------------------------------

    1 ----10-p8----10p8----------8--------------------------------------------------------------------------------
    2 -----8---------------------10---------10p8-----------------------------------------------------------------------
    3 ---------------------------------------------------9p7/5h7/9-----9-9h10h9-------7-7h5/4-5------------
    4 -----------------------------------------------------------------------------------------------------------------------
    5 ----------------------------------------------------------------------------------------------------------------------
    6 ------------------------------------------------------------------------------------------------------------------------


    1 ------10/12--12-12--------10--12/13--/12-12----------10h12p8-10--p8p7/5---------------
    2 --------------------------------------------------------------------------------------------------------------
    3 -------------------------------------------------------------------------------------------------------------
    4 -------------------------------------------------------------------------------------------------------------
    5 --------------------------------------------------------------------------------------------------------------
    6 --------------------------------------------------------------------------------------------------------------

    1 ---8---10--8----------------------------------------------- 10--------7h8p7---------7-----------------------------
    2 ---8-------------------------------------------------8/10------------8-----------10-------8---10---------10h810-
    3 -------------------9-7-5-7/9---5-7---5-7/9--------------------------------------------------------9--7--------
    4 ---------------------------------------------------------------------------------------------------------------------------
    5 ---------------------------------------------------------------------------------------------------------------------------
    6 ---------------------------------------------------------------------------------------------------------------------------
    : : :พลาดผิดประการใดผมขออภัยด้วยแล้วกันนะครับเพราะผมลองแกะเอง ก็แค่ชอบเพลงนี้อะเลยลงให้

    / คือ การใช้นิ้วสไสด์สาย

    h คือ การเล่นโดยใช้นิ้วตบสาย เช่น 7h8 คือใช้นิ้วชี้กดช่องที่7 แล้วจึงใช้นิ้วกลางตบสายลงในช่องที่ 8

    p คือ การเล่นโดยใช้นิ้วดึงเสียงกลับ เช่น 8p7 คือใช้นิ้วกลางกดช่องที่8 แล้วจึงยกดึงสายให้เกิดเสียง
    โน๊ตในช่องที่7 โดยที่ต้องกดสายช่องที่ 7ไว้ด้วย

    ~ คือ การค้างเสียงไว้ เช่นการสั่นสายเอาไว้

    บ๊ายบายนะคร๊าบทุกคน โชคดีล่ะ มีข้อข้องสงสัยยังไงก็ถามมาใน เมลล์ ละกันนะครับ
    sunya_mayhotmail.com
  • auy
    Guest
  • 4 ก.ย.2549,20:56น.
    D/Amaj7/Bm/Amaj7 2time
  • iboom@thaimail.com
    Guest
  • 7 ก.ย.2549,17:40น.
    ช่วงกลาง(ช่วงที่ซ้ำ*นะครับ)
    ตอนท้ายที่เล่นคอร์ฅ G ก่อนที่จะขึ้น ซ้ำ(**)นะครับ
    1.-----------------------------------------------------------------------------------------
    2.---------0--1-0----------0-1-3-----------------------------------------------------------------
    3.-------0--0--0-0-------0-0-0--------------------------------------------------------------------
    4.-------------------------------------------------------------------------------------------
    5.------------------------------------------------------------------------------------------
    6.----3-----------------3------------------------------------------------------------------
    ผมมันใจอย่างนี้นะครับ ถูกแน่นอน (ลองเล่นดูนะครับ)
  • ปอ
    Guest
  • 7 ก.ย.2549,21:44น.
    ตงท่อนที่ร้องว่า จากร้อยยิ้มที่เธอส่งมา....

    1:---------------------------------------------------------------------
    2:----------1-------0--------------------------------------------------
    3:---------------------------------------------------------------------
    4:-------2-------2-----------------------------------------------------
    5:---0--------2--------------------------------------------------------
    6:---------------------------------------------------------------------

    เล่นวนไปจนถึงท่อน จับมือเธอไว้ข้างใจฉัน... แค่นาที

    ถ้าใช้ได้ก็บอกกันมั่งนะคับ
  • ตาหวาน TEAM
    Guest
  • 19 ก.ย.2549,15:59น.
    ช่วยเป็นคนช่วยสอนกีต้าร์   หน่อยเถอะครับ       
    14 อีกครั้ง
    ศิลปิน : โลโซ
    c Em Am/G
    ครั้งแรกที่เราได้เจอะกันวันนั้น
    c Em Am/G
    เธอเป็นเหมือนฝันที่ฉันตามหา
    c Em Am/G
    เมื่อฉันมองเธอ เธอประสานสายตาต่อตา
    Am Em Am Em
    *จากรอยยิ้มที่เธอส่งมา จากเวลาที่เราใกล้กัน
    Am Em G
    จับมือเธอไว้ข้างใจฉันแค่นาที
    C G Am F/G
    **เธอทำไห้ฉันรู้สึกเหมือนตอน 14
    C G Am F/G
    ตอนที่ฉันมีแฟนคนแรก
    C G Am F/G
    ลึกๆข้างในมันหวั่นมันไหวแปลกๆ
    Am G F
    เธอรู้ไหมฉันเหมือน14อีกครั้ง
    C Em Am/G
    อารมณ์แบบนี้มันหายไปสักพัก
    C Em Am C Em Am/G
    เคยมีคนรักกก็โดนเขาหักอกเจ็บปวดแทบตายที่ข้างใน ยังซ้ำฟก ไม่หาย

    (*,**)
    (*,**)
    (**)
    C G Am
    เธอรู้ไหมฉันเหมือน14อีกครั้ง
    C G Am
    เธอรู้ไหมฉันเหมือน14อีกครั้ง

  • บาส
    Guest
  • 23 ก.ย.2549,17:08น.
    C/Dm/Em/Dm(2รอบ)
    C Dm Em Dm
    ครั้งแรกที่เราได้เจอะกันวันนั้น
    C Dm Em Dm
    เธอเป็นเหมือนฝันที่ฉันตามหา
    C Dm Em Dm C /Dm/Em/F/G
    เมื่อฉันมองเธอ เธอประสานสายตาต่อตา
    Am Em Am Em
    *จากรอยยิ้มที่เธอส่งมา จากเวลาที่เราใกล้กัน
    Am Em G
    จับมือเธอไว้ข้างใจฉันแค่นาที
    C G Dm F/G
    **เธอทำไห้ฉันรู้สึกเหมือนตอน 14
    C G Dm F/G
    ตอนที่ฉันมีแฟนคนแรก
    C G Dm F/G
    ลึกๆข้างในมันหวั่นมันไหวแปลกๆ
    Am G F
    เธอรู้ไหมฉันเหมือน14อีกครั้ง



    C Dm Em Dm
    อารมณ์แบบนี้มันหายไปสักพัก
    C Dm Em Dm
    เคยมีคนรักก็โดนเขาหักอก
    C Dm Em Dm C/Dm/Em/F/G
  • Earthiiz
    Guest
  • 23 ก.ย.2549,23:26น.
    ผมว่า ตรง
    จับมือฉันไว้แค่นาทีน่าจะเปน Am Em Gsus4 นะครับ

    แล้วเท่าตรง Gsus4มันเกาแบบว่าอธิบายไม่ถูกอะ^ ^
  • Guitar Master Brr Studen M6
    Guest
  • 10 ต.ค.2549,23:22น.
    อืมขอโพสมั้งนะ(แกะไม่เหมือนกันอ่ะ แต่คล้ายๆๆ อ่ะ ลองเอาไปเล่นกันดูนะ)
    solo
    1-----------------------------------------------------------10p8-10p8------8------------------------
    2------------------------8-----8~-10p8----8(8)\10------------------10-----10\8---------------
    3---------5-7-5-7\9-----9---------------9----------------------------------------------9--7-5-7\9
    4---5h7--------------------------------------------------------------------------------------------------

    1---10\12(12~)------12h13-12~-10h12-8h10-8~---------------------------------------------
    2---------------------15----------------------------------------\6--13h15-13--------------------------
    3------------------------------------------------------------------------------------14-12-----------------
    4---------------------------------------------------------------------------------------------14-13-----10
    5------------------------------------------------------------------------------------------------------12---


    2---------------------------------13------12h13p12-------12-------------------------------------
    3------------------------12-14-----14------------------14------12-14-------12--14h12-14~
    4------12-----12\14-------------------------------------------------------14-----------------------
    5--12-----12------------------------------------------------------------------------------------------

    สเกลก่อนขึ้นท่อน hook
    1---------------------------------------------------10(10)\12~
    2------------------------------------10-12-13-------------------
    3-----------------------9-10-12---------------------------------
    4----------9-10-12-----------------------------------------------
    5-10-12-----------------------------------------------------------

    ก้อลองเอาไปเล่นดูนะคับ อาจจะไม่เหมือนสะทุกประการหรอก แต่ก้อน่าจะ ok นะ

    สัญลักษณ์ที่ใช่
    \ คือ การสไลด์สาย
    h คือ hummer on
    p คือ pull off
    ~ คือ การสั่นสาย (แต่พองามนะ เด๋วเล่นม่ายทัน)

  • 16 ต.ค.2549,02:50น.
    Intro เล่น แค่ C ก็พอ
    1----------0-----------0-------0-----0--
    2-------1----------1-------1------1-----

    4---------------0-------2-----0---------
    5--3--------------------------------------

    เล่นแบบเนี้ย 2 รอบ จับคอร์ด C
  • ddamrongsak@hotmail.com
    Guest
  • 18 ต.ค.2549,00:09น.
    จ๊าบครับเพ่   เล่นง่ายจังว่างๆเเกะเพลงใจจะขาด + ใช่ฉันหรือเปล่าให้ด้วยนะครับ
    Guitar Master Brr Studen M6
    ((ขอคอร์ดกีต้าร์))
  • เด็กรัตภูมิ
    Guest
  • 2 ม.ค.2550,22:17น.
    ตอบของคนที่ 149
    ตอนที่มันจะมีกีตาร์ดีด แต๊ดแต๋วตาแดว อ่ะ
    C
    1/------1--------------------------------------------------------------------
    2/----------------0---------1------------------------------------------------
    3/----------0---------------------------------------------------------------
    4/------------------------------------------------------------------------
    5/--------------------------3---------------------------------------------
    6/-------------------------------------------------------------------------

    ลองดู
  • อู๋
    Guest
  • 7 ม.ค.2550,16:15น.
    C      C/D     C/E       C/D
    ครั้งแรกที่เราได้เจอะกันวันนั้น
    C C/D C/E C/D
    เธอเป็นเหมือนฝันที่ฉันตามหา
    C C/D C/E C/D F/G7
    เมื่อฉันมองเธอ เธอประสานสายตาต่อตา
    Am Em Am Em
    *จากรอยยิ้มที่เธอส่งมา จากเวลาที่เราใกล้กัน
    Am Em F/G7
    จับมือเธอไว้ข้างใจฉันแค่นาที
    C G7 Dm F/G7
    **เธอทำไห้ฉันรู้สึกเหมือนตอน 14
    C G7 Dm F/G7
    ตอนที่ฉันมีแฟนคนแรก
    C G7 Dm F/G7
    ลึกๆข้างในมันหวั่นมันไหวแปลกๆ
    Am G F
    เธอรู้ไหมฉันเหมือน14อีกครั้ง
    C C/D C/E C/D
    อารมณ์แบบนี้มันหายไปสักพัก
    C C/D C/E C/D
    เคยมีคนรักกก็โดนเขาหักอก
    C C/D C/E C/D F/G7
    เจ็บปวดแทบตายที่ข้างใน ยังซ้ำฟก ไม่หาย

    (*,**)
    (*,**)
    (**)
    Am G F
    เธอรู้ไหมฉันเหมือน14อีกครั้ง
    Am G F
    เธอรู้ไหมฉันเหมือน14อีกครั้ง

    ไม่รุนะ ถูกละป่าว ตามหนังสือเพลงอะ
  • อู๋
    Guest
  • 8 ม.ค.2550,09:10น.
    Intro:
    C
    1 ---------------0------------0--------------0--------- 0--------------0---
    2 ----------1-----1-------1-----1-------1---1------1----1---------1----1-
    3 ------------------------------------------------------------------------------
    4 ------------------0--------------2-----------------0-----------------------
    5 ----3------------------------- --------------------------------- 3----------
    6 ------------------------------------------------------------------------------ (2time)

    เล่นคอร์ด C ธรรมดาแล้วก็ปล่อยนิ้วกลาง จนถึงท่อนส่ง

    C C/D C/E C/D
    ครั้งแรกที่เราได้เจอะกันวันนั้น
    C C/D C/E C/D
    เธอเป็นเหมือนฝันที่ฉันตามหา
    C C/D C/E C/D F/G7
    เมื่อฉันมองเธอ เธอประสานสายตาต่อตา


    1 ---------------0------------0---------------- 0--------- แล้วก็เกา Am / Em
    2 ----------1-----1-------1----1----------1----1--------
    3 ----------------------------------------------------------
    4 ------------------ 0-------------- 2-----------3-----
    5 ----3------------------------- ---------------------------
    6 ---------------------------------------------------------

    Am Em Am Em
    *จากรอยยิ้มที่เธอส่งมา จากเวลาที่เราใกล้กัน
    Am Em F/G7
    จับมือเธอไว้ข้างใจฉันแค่นาที

    1.---------------------------------3---ส่งเข้าท่อนฮุก
    2.--0--1---0-----0---1-----2--------


    C G7 Dm F/G7
    **เธอทำไห้ฉันรู้สึกเหมือนตอน 14
    C G7 Dm F/G7
    ตอนที่ฉันมีแฟนคนแรก
    C G7 Dm F/G7
    ลึกๆข้างในมันหวั่นมันไหวแปลกๆ
    Am G F
    เธอรู้ไหมฉันเหมือน14อีกครั้ง

    1.---1/3/5--5/3--1--
    2.---1/3/5--5/3--1--

    C C/D C/E C/D
    อารมณ์แบบนี้มันหายไปสักพัก
    C C/D C/E C/D
    เคยมีคนรักกก็โดนเขาหักอก
    C C/D C/E C/D F/G7
    เจ็บปวดแทบตายที่ข้างใน ยังซ้ำฟก ไม่หาย

    (*,**)
    (*,**)
    (**)
    Am G F
    เธอรู้ไหมฉันเหมือน14อีกครั้ง
    Am G F
    เธอรู้ไหมฉันเหมือน14อีกครั้ง

    เพิ่มอีกนิดจากอันเก่าอ่านะ
    เดี๋ยวรอ ท่อน Soloแปบ

    garn_khunghotmail.com
1

ขอเชิญร่วมแสดงความคิดเห็นครับ

คลิกที่รูป เพื่อแทรกรูปลงในข้อความ
  • Member :
    username
    password
  • Not a member :
    name
    email