Loading

คอร์ดเพลง 5 นาที

โลโซ (Loso)

อัพโหลดคลิปเพลงนี้ที่คุณ ร้อง/เล่น ด้วยตัวคุณเอง ได้แล้ววันนี้
ระหว่างการทดสอบระบบหากพบข้อผิดพลาด กรุณาแจ้งที่นี่
5นาที 
Artist : โลโซ(LOSO)




Em A Bm F#5 A5 B5 G7 G#5 A5
-----------------------------------------------------------------------------------------------------------------------------------------
---------------2--2/3 2h3h2-------------------------5-----3---2-----3---2h3h2------------------------------------------------
----------4-------------------------4----2---------4--------------2--------------------4---2---4------------------------------------
-----4/-----------------------------------------5----------5-------2-------------------------------------------------------------------
--------------------------------------------------------------------------------------------------------4--4----7--9----5----6-----7-
--------------------------------------------------------------------------------------------------------2--2----5--7----3----4-----5-

ดู เว.......ลา ทำ...ไม เร็ว........จัง ไม่เหมือน......ดัง ที่ ตอน...รอ........คอย
B7
---------------------------------------------------------------------------------------------------------------------------------
-10--10----10----10-------10---10------10-------10---10-------10-------10---------10----10-------10---------
--8----8-----8------8---------8-----8-------8---------8-----8---------8--------8-----------8------8---------8----------
--7----7-----7------7---------7-----7-------7---------7-----7---------7--------7-----------7------7---------7----------
--9----9-----9------9---------9-----9-------9---------9-----9---------9--------9-----------9------9---------9----------
---------------------------------------------------------------------------------------------------------------------------------

ยืน..คน......เดียว คน เดียว...ใจ....ลอย คอย รัก อยู่ เธอ...ไม่
B7 Em
----------------------------------------------------------------------------------------0------------------------0---------------
-10---10-----10------10--------10----10-----10-------10-----------------0-----------------------0--------------------
--8----8-------8--------8---------8------8-------8---------8-------------0------------------------0------------------------
--7----7-------7--------7---------7------7-------7---------7---------2----------------------2------------------------------
--9----9-------9--------9---------9------9------9----------9-----------------------------------------------------------------
-----------------------------------------------------------------------------------------------------------------------------------

มา ไม่.....มา.. สัก ที
F#m11 G6
----------------0----------------------0---------------------------------0---------------------
-----------0-----------------------0---------------------------------3-------------------------
------2------------------------2--------------------------------4------------------------------
-4------------------------4-------------------------------5-------------------------------------
--------------------------------------------------------------------------------------------------
--------------------------------------------------------------------------------------------------



อยากได้ท่อนโซโลตอนท้ายมาก ๆ ช่วยเขียน tab ให้หน่อยเถอะคับ ขอร้อง
ดาวน์โหลด Full Song
กด *424243158316584
กด *424243158316584
ดาวน์โหลด Truetone
กด *424218158316584
กด *424218158316584
กด *424218158316584
ดาวน์โหลด Poly
กด *424214158316584
กด *424214158316584
กด *424214158316584
ดาวน์โหลด Mono
กด *424211158316584
กด *424211158316584
กด *424211158316584
* อัตราค่าบริการดาวน์โหลด Fullsong, Truetone, Poly, Mono : 35 บาท/เพลง
ส่งเพลงนี้ให้เพื่อน
วันที่โพสต์ : 16 ม.ค.2548,18:00น.
จำนวนผู้ชม : 115137 คน / แสดงความคิดเห็น : 53 ครั้ง
โพสต์โดย


จาก: M
Guest
เพลงแนะนำ
เพลงฮิต
ผู้สนับสนุน
เลือกแสดงเฉพาะ :

1

ขอเชิญร่วมแสดงความคิดเห็นครับ

คลิกที่รูป เพื่อแทรกรูปลงในข้อความ
  • Member :
    username
    password
  • Not a member :
    name
    email