Loading

คอร์ดเพลง Hotel California

Eagles

อัพโหลดคลิปเพลงนี้ที่คุณ ร้อง/เล่น ด้วยตัวคุณเอง ได้แล้ววันนี้
ระหว่างการทดสอบระบบหากพบข้อผิดพลาด กรุณาแจ้งที่นี่
Print

                    E
Warm smell of colitas, rising through the air
G D
Up ahead in the distance, I saw a shimering light
Em F#
My head grew heavy and my sight grew dim, I had to stop for the night
Bm F#
There she stood in the doorway, I heard the mission bell
A E
And I was thinking to myself: this could be heaven or this could be hell
G D
Then she lit up a candle and she showed me the way
Em F#
There were voices down the corridor, I thought I heard them say:
G D
Welcome to the Hotel Califoia
Em Bm7 ( F# )
Such a lovely place (such a lovely place), such a lovely face
G D
Plenty of room at the Hotel Califoia
Em F#
Anytime of year (any time of year), you can find it here-quot;
Bm F#
Her mind is Tiffany twisted, she got the Mercedes Benz
A E
She got a lot of pretty, pretty boys, that she calls friends
G D
How they dance in the courtyard, sweet summer sweat
Em F#
Some dance to remember, some dance to forget
Bm F#
So I called up the captain, -quot;Please bring me my wine-quot;,
A E
He said -quot;We haven't had that spirit here since nineteen sixty-nine-quot;
G D
And still those voices are calling from far away
Em F#
Wake you up in the middle of the night, just to hear them say


G D
-quot;Welcome to the Hotel Califoia
Em Bm7 (F#)
Such a lovely place (such a lovely place), such a lovely face
G D
They livin' it up at the Hotel Califoia
Em F#
What a nice surprise (what a nice surprise), bring your alibis-quot;
Bm F#
Mirrors on the ceiling the pink champagne on ice, (and she said)
A E
-quot;We are all just prisoners here, of our own device-quot;
G D
And in the master's chambers, they gathered for the feast
Em F#
They stab it with their steely knives but they just can't kill the beast
Bm F#
Last thing I remember, I was running for the door
A E
I had to find the passage back to the place I was before
G D
-quot;Relax,-quot; said the night man, -quot;We are programmed to receive
Em F#
You can check out any time you like, but you can never leave-quot;

Intro: Bm / F# / A / E / G / D / Em / F# (3 time) Bm
มัสยา ครับ เกษตรฯ ชัยภูมิ
http://www.musicatm.com/thai/คอร์ดเพลง-Hotel-California-Eagles-7183.html
ส่งเพลงนี้ให้เพื่อน
วันที่โพสต์ : 14 พ.ย.2549,12:58น. 192.168.2.57
จำนวนผู้ชม : 249256 คน / แสดงความคิดเห็น : 101 ครั้ง
โพสต์โดย


จาก: มัสยา
เข้าร่วม: 8 ปีก่อน
เพลง: 0
โพสต์: 6
เพลงแนะนำ
เพลงฮิต
เลือกแสดงเฉพาะ :

  • บีเตยงาม
    Guest
  • 23 พ.ย.2549,21:09น.
    1)------------------------------------------------------------------------------------------------------
    
    2)-------10-12^---10-12-----------7-------------------------------------------------------------
    3)-/11----------------------9----7-9---7----7h4p7----------------------------------------------
    4)-------------------------------------------8-------------7^-----------------------------------------
    5)------------------------------------------------------------------------------------------------------
    6)------------------------------------------------------------------------------------------------------

    1)------------------------------------------------------10---------------------------------------------
    2)-------7------------------7--------------------10^----10^-7-10-8^----------------------------
    3)-7h9---7----------7h9---7------------------------------------------------------------------------
    4)------------9p8-9------------9p7-9p7-----------------------------------------------------------
    5)-------------------------------------------------------------------------------------------------------
    6)-------------------------------------------------------------------------------------------------------

    1)-7---10^--10--10^-7-------10-------------------10-------------------------------------------
    2)---7-----------------------10^-----10^-8-10----------------------------------------------------
    3)----------------------------------------------------9^----9^-7--7p6-7---------------------------
    4)-------------------------------------------------------------------------------------------------------
    5)-------------------------------------------------------------------------------------------------------
    6)-------------------------------------------------------------------------------------------------------

    1)--------------------------------------------------------------7---------------------------------------
    2)-------7^-7^----------7^--7^-7^-----------7-10----7-----------------------------------------
    3)-7h9---------9p7-9---------------9h7--9^-------9^-----9^-7--9^---------------------------
    4)-------------------------------------------------------------------------------------------------------
    5)-------------------------------------------------------------------------------------------------------
    6)-------------------------------------------------------------------------------------------------------

    1)---------------------7--------7---------------7------------------------------------------------------
    2)-7---7-10---7--7-------7------7--7---7--7------------------------------------------------------
    3)-9^----------9^---------9^--------9^---------9^-7-9-7--9^-----------------------------------
    4)-------------------------------------------------------------------------------------------------------
    5)-------------------------------------------------------------------------------------------------------
    6)-------------------------------------------------------------------------------------------------------

    1)----------------------------7------------------10----------------------------------------------------
    2)----------------------10^---10p7--10-12----10-12-11-10-9--------------------------------
    3)-11^-9-11-7---7----------------------------------------------------------------------------------
    4)-----------------9------------------------------------------------------------------------------------
    5)-------------------------------------------------------------------------------------------------------
    6)-------------------------------------------------------------------------------------------------------

    1)-------------------------------17---------------------------15-16-17-19-------------------------
    2)-------12-15--17-15-17^----17^-15-17-15--17^----------------17^-15-17------------
    3)-14^--------------------------------------------------------------------------------------------------
    4)--------------------------------------------------------------------------------------------------------
    5)--------------------------------------------------------------------------------------------------------
    6)--------------------------------------------------------------------------------------------------------

    1)------------------17-17-----------------------------17-17----------------------------17^-------
    2)-17p15--17^--------17^-17^-17^-15--17^---------17^-17^----17^--15--------------
    3)-------------------------------------------------------------------------------18^--16--------------
    4)--------------------------------------------------------------------------------------------------------
    5)--------------------------------------------------------------------------------------------------------
    6)-------------------------------------------------------------------------------------------------------

    เด็วต่อเลย เพราะรายไม่รุ ลงยาวๆๆๆไม่ได้
  • บีเตยงาม
    Guest
  • 23 พ.ย.2549,21:09น.
    1)------------------------------------------------------------------------------------------------------
    2)-------10-12^---10-12-----------7-------------------------------------------------------------
    3)-/11----------------------9----7-9---7----7h4p7----------------------------------------------
    4)-------------------------------------------8-------------7^-----------------------------------------
    5)------------------------------------------------------------------------------------------------------
    6)------------------------------------------------------------------------------------------------------

    1)------------------------------------------------------10---------------------------------------------
    2)-------7------------------7--------------------10^----10^-7-10-8^----------------------------
    3)-7h9---7----------7h9---7------------------------------------------------------------------------
    4)------------9p8-9------------9p7-9p7-----------------------------------------------------------
    5)-------------------------------------------------------------------------------------------------------
    6)-------------------------------------------------------------------------------------------------------

    1)-7---10^--10--10^-7-------10-------------------10-------------------------------------------
    2)---7-----------------------10^-----10^-8-10----------------------------------------------------
    3)----------------------------------------------------9^----9^-7--7p6-7---------------------------
    4)-------------------------------------------------------------------------------------------------------
    5)-------------------------------------------------------------------------------------------------------
    6)-------------------------------------------------------------------------------------------------------

    1)--------------------------------------------------------------7---------------------------------------
    2)-------7^-7^----------7^--7^-7^-----------7-10----7-----------------------------------------
    3)-7h9---------9p7-9---------------9h7--9^-------9^-----9^-7--9^---------------------------
    4)-------------------------------------------------------------------------------------------------------
    5)-------------------------------------------------------------------------------------------------------
    6)-------------------------------------------------------------------------------------------------------

    1)---------------------7--------7---------------7------------------------------------------------------
    2)-7---7-10---7--7-------7------7--7---7--7------------------------------------------------------
    3)-9^----------9^---------9^--------9^---------9^-7-9-7--9^-----------------------------------
    4)-------------------------------------------------------------------------------------------------------
    5)-------------------------------------------------------------------------------------------------------
    6)-------------------------------------------------------------------------------------------------------

    1)----------------------------7------------------10----------------------------------------------------
    2)----------------------10^---10p7--10-12----10-12-11-10-9--------------------------------
    3)-11^-9-11-7---7----------------------------------------------------------------------------------
    4)-----------------9------------------------------------------------------------------------------------
    5)-------------------------------------------------------------------------------------------------------
    6)-------------------------------------------------------------------------------------------------------

    1)-------------------------------17---------------------------15-16-17-19-------------------------
    2)-------12-15--17-15-17^----17^-15-17-15--17^----------------17^-15-17------------
    3)-14^--------------------------------------------------------------------------------------------------
    4)--------------------------------------------------------------------------------------------------------
    5)--------------------------------------------------------------------------------------------------------
    6)--------------------------------------------------------------------------------------------------------

    1)------------------17-17-----------------------------17-17----------------------------17^-------
    2)-17p15--17^--------17^-17^-17^-15--17^---------17^-17^----17^--15--------------
    3)-------------------------------------------------------------------------------18^--16--------------
    4)--------------------------------------------------------------------------------------------------------
    5)--------------------------------------------------------------------------------------------------------
    6)-------------------------------------------------------------------------------------------------------

    เด็วต่อเลย เพราะรายไม่รุ ลงยาวๆๆๆไม่ได้
  • บีเตยงาม
    Guest
  • 23 พ.ย.2549,21:10น.
    1)--------------------------------------------------------------------------------------------------------
    2)-------15-------15------------------------------------------------------------------------------------
    3)-17^-----17^----------------------------15---------------------------------------------------------
    4)---------------------16p14-12----------------------------------------------------------------------
    5)------------------------------------14-13-------------------------------------------------------------
    6)---------------------------------------------------------------------------------------------------------

    1)---------------------------------------------------------------------------------------------------------
    2)-17^-17^-17^-17^-17^-17^-17^-17-17-17-17p15-----17-15^-----------------------
    3)--------------------------------------------------------------------16------------16------------------
    4)---------------------------------------------------------------------------------------------------------
    5)---------------------------------------------------------------------------------------------------------
    6)---------------------------------------------------------------------------------------------------------

    1)---------------------------------------------------------------------------------------------------------
    2)---------------------------------------------------------------------------------------------------------
    3)-14------------------------14-------------------------------------------------------------------------
    4)------16-14-12-14-16------------------------------------------------------------------------------
    5)---------------------------------------------------------------------------------------------------------
    6)---------------------------------------------------------------------------------------------------------

    1)-----7---------------------------------------------------------------------------------6-7-9----------
    2)-------7-10---7-------------------------------7---10-7-------------------7-8-7-------------------
    3)-9^---------9---7-9---7------------------------7-------9^-7----7--9-9---------------------------
    4)-----------------------9------7--------------7---------------------------------------------------------
    5)----------------------------9---9-7-5-7-9-----------------------------------------------------------
    6)--------------------------------------------------------------------------------------------------------

    1)-14-10---14-10---14-10---14-10---14-10----12p9----12p9----12p9--18----------
    2)---------12-------12--------12-------12--------12--------11--------11------------------------
    3)--------------------------------------------------------------------------------------------------------
    4)----------------------------------------------------------------------------------------------------------
    5)---------------------------------------------------------------------------------------------------------
    6)---------------------------------------------------------------------------------------------------------

    1)-12-9----12-9-----12-9----12-9----12-9-----10-7--10-7---10-7-16--------------------
    2)--------10-------10-------10-------10-------10-------9-------9--------------------------------
    3)------------------------------------------------------------------------------------------------------
    4)------------------------------------------------------------------------------------------------------
    5)-------------------------------------------------------------------------------------------------------
    6)------------------------------------------------------------------------------------------------------

    1)-10-7---10-7---10-7---10-7---10-7-----10-5---10-5---10-5--14-----------------------
    2)--------8-------8--------8-------8--------8---------7--------7-----------------------------------
    3)------------------------------------------------------------------------------------------------------
    4)------------------------------------------------------------------------------------------------------
    5)------------------------------------------------------------------------------------------------------
    6)-----------------------------------------------------------------------------------------------------

    1)-7-3---7-3---7-3---7-3---7-3----9-6---9-6----9-6-14-------------------------------------
    2)------5------5------5-----5------5-------7------7----------------------------------------------
    3)-----------------------------------------------------------------------------------------------------
    4)------------------------------------------------------------------------------------------------------
    5)----------------------------------------------------------------------------------------------------
    6)-----------------------------------------------------------------------------------------------------
  • บีเตยงาม
    Guest
  • 24 พ.ย.2549,03:46น.
    ก้อที่จาเล่น
    ถ้าจาหั้ยเสียงเหมือนก้อเอาตัวที่กั้นเฟรดมากั้น บาที่7 แล้วก้อเล่นตามนี้เลย

    1)------------------------0--------------------------------2-----------------------------------------
    2)--0-----------0----------------0---------------0-------------0-----------------------------------
    3)--0----0------------0------0--2-----------2-------------2--------------------------------------
    4)--2--------2-----2----------------------1-----------------------1-------------------------------
    5)--2--2---------------------------------------------2----------------------------------------------
    6)--0------------------------------------------------------------------------------------------------

    1)----------5-----0-------------------------------0------------------0-----------------------------
    2)-------------3-----3--------3---------0------------------0--------------------------------------
    3)-----2-------------------2---------2---------------0-------0--0--------------------------------
    4)--0-------------------0--------------------------------2------------------------------------------
    5)--------------------------------0-----------4-----------------------------------------------------
    6)----------------------------------------------------------------------------------------------------

    1)-----0-----0------------0------------------------------------3-----------------------------------
    2)---------------1----------------1----------------------0-----------0--------0-------0-----------
    3)--------0------------0--------------------0--------0----0---------------0-----------------------
    4)------------------2-----------------0h2--------0---------------0----------------0---------------
    5)--3--------------------------3------------------------------------------2--------------------------
    6)---------------------------------------------------------------------------------3-----------------

    1)-----0----------------0--------------------------------------2--------------------------------------
    2)--------------1----1-----------------0------------0------------------------------------------------
    3)--------0------------------0-----------------2-2--------2------------------------------------------
    4)-----------2-----2------2-------2--------1----------1--------------------------------------------
    5)--0--------------------------------------2-----------------------------------------------------------
    6)-------------------------------0----------------------------------------------------------------------

    ยังไงก้ออย่าลืม เอาตัวกั้นเฟรดมากั้นนะที่บา7อ่ะ ยังไงก้อลองๆๆดุมีคนเค้าขอมา
    นักดนตรีเค้าไม่ดูถูกกันหรอกนะคร๊าบ คุนคนเคยอ่อน
  • piano
    Guest
  • 2 มี.ค.2550,18:11น.

    Intro
    4>---0----2--4--2---0-------------------------------------------4--0--2-----4--5--4-----
    5>-----------------------4------4----5--7--2-----2--4--5--0-------------------------------

  • ยุท S.P.Y.
    Guest
  • 23 มี.ค.2550,21:52น.

    เด๋วผมเกะ เทป คอนเสิร์ต เพลงนี้มาให้เพราะกว่าอีก ใช้กีตาร์คลาสสิค เล่น โซโลงี้ สุดยอด แต่ฟังโซโลยากหน่อย
    เอาท่อนอินโทไปก่อนเลย
    1-----7------------------------------------------------------------------------5----------------------
    2-----7------------------------------------------------------------------------5---------------------
    3-----7------------------------------------------------------------------------6----------------------
    4-----9--------------------------------------9----11>12----9-----11-----7----------------------
    5-----9------9>11---8---9---11---12------------------------------------7-------------
    6-----7------------------------------------------------------------------------5--------------------
    ง่วงล่ะเด๋วมาให้ใหม่ เขียนอยากว่ะ ไม่มีโปรเลย
  • 22 ก.ย.2557,01:35น.
    Intro: Bm / F# / A / E / G / D / Em / F# (2 time)
    
    Bm                                          F#                             
    
          On a dark desert highway,     cool wind in my hair  
    
    A                                         E
    
          Warm smell of colitas,       rising through the air
    
    G                                                    D                            
    
          Up ahead in the distance,      I saw a shimering light        
    
    Em                                                                          F#
    
          My head grew heavy and my sight grew dim,    I had to stop for the night
    
    Bm                                                       F#                               
    
           There she stood in the doorway,          I heard the mission bell  
    
    A                                                           E
    
           And I was thinking to myself: this could be heaven or this could be hell
    
       G                                                        D                                          
    
             Then she lit up a candle and she showed me the way      
    
    Em                                                                  F#
    
           There were voices down the corridor,          I thought I heard them say: 
    
       G                                         D           
    
         Welcome to the Hotel California     
    
                  Em                                                             Bm7  ( F# )
    
    Such a lovely place (such a lovely place), such a lovely face
    
    G                                                  D             
    
         Plenty of room at the Hotel California        
    
            Em                                                          F#
    
    Anytime of year (any time of year), you can find it here"
    
    Bm                                                F#                                                                                                       
    
          Her mind is Tiffany twisted,       she got the Mercedes Benz  
    
    A                                                             E
    
          She got a lot of pretty, pretty boys,     that she calls friends
    
    G                                                          D                         
    
          How they dance in the courtyard,     sweet summer sweat    
    
    Em                                            F#
    
          Some dance to remember,       some dance to forget
    
    Bm                                          F#                                      
    
          So I called up the captain,     "Please bring me my wine", 
    
    A                                                                           E
    
          He said "We havent had that spirit here since     nineteen sixty-nine"
    
    G                                                              D
    
          And still those voices are calling from far away
    
    Em                                                                   F#
    
          Wake you up in the middle of the night,        just to hear them say 
    
    G                                           D
    
         "Welcome to the Hotel California 
    
    Em                                                                                   Bm7 (F#)
    
          Such a lovely place (such a lovely place),     such a lovely face
    
    G                                                         D
    
          They livin it up at the Hotel California
    
                Em                                                              F#
    
    What a nice surprise (what a nice surprise), bring your alibis"
    
    Bm                                     F#
    
          Mirrors on the ceiling       the pink champagne on ice, (and she said)
    
    A                                                     E
    
        "We are all just prisoners here,      of our own device"
    
    G                                                    D
    
          And in the masters chambers,      they gathered for the feast
    
    Em                                                                           F#
    
           They stab it with their steely knives but they   just cant kill the beast
    
    Bm                                       F#
    
           Last thing I remember,       I was running for the door
    
    A                                                               E
    
           I had to find the passage back to the place I was before
    
    G                                                     D
    
          "Relax," said the night man, "We are programmed to receive
    
    Em                                                               F#
    
           You can check out any time you like,      but you can never leave"
    
    
    Intro: Bm / F# / A / E / G / D / Em / F# (3 time) Bm
1

ขอเชิญร่วมแสดงความคิดเห็นครับ

คลิกที่รูป เพื่อแทรกรูปลงในข้อความ
  • Member :
    username
    password
  • Not a member :
    name
    email