Loading

คอร์ดเพลง Love

พาราดอกซ์ (Paradox)

อัพโหลดคลิปเพลงนี้ที่คุณ ร้อง/เล่น ด้วยตัวคุณเอง ได้แล้ววันนี้
ระหว่างการทดสอบระบบหากพบข้อผิดพลาด กรุณาแจ้งที่นี่
Love
คำร้อง/ทำนอง อิทธิพงศ์ กฤดากร ณ อยุธยา
PARADOX : ร้อง
เล่นจังหวะ Mappito

C Em
* โอ้ความรัก โปรดมองฉัน
Dm G C
บางเวลา เราพบกันเมื่อวันช้ำใจ
Em Dm G
เธอเข้ามา โอบกอดฉันไว้แผ่วเบา
C Em
โอ้ความรัก ที่อ่อนหวาน
Dm G C
โปรยความงาม พาหัวใจฉันลอยล่องไป
Em Dm G
ดูซิดู เธออยู่ไหน เจ้าความรักฉันอยากพบเธอ

Instru: C C C C G

C Em Dm G C
มองจันทราเวลาฟ้าดำ บอกทะเลฉันคงเข้าใจ
Em Dm G C
มีความงามขึ้นมาครั้งใด เป็นพบเธอ อยู่ข้างใน
Em Dm G C
เธอทำให้โลกสดใส และก็ทำให้ฉันเศร้าใจ
Em Dm G
เปลี่ยนแปลงชีวิตฉันได้ เป็นเพราะเธอ

(ซ้ำ *)

Instru: C C C C G

C Em Dm Ab
ลาลันลา ล้าลา ลาลันลา ล้าลา ลาลันหล่า หล่าลาลันลา
C Em Dm G
ล้าอาฮา หู่ฮูฮูฮู ล้าลาลาลันหล่า

C Em
โอ้ความรัก โปรดมองฉัน
Dm G C
บางเวลา เราพบกันเมื่อวันช้ำใจ
Em Dm G
เธอเข้ามา โอบกอดฉันไว้แผ่วเบา
C Em
โอ้ความรัก ที่อ่อนหวาน
Dm G C
โปรยความงาม พาหัวใจฉันลอยล่องไป
Em Dm G C
ดูซิดู เธออยู่ไหน เจ้าความรักฉันอยากเจอเธอ

Em Dm G C
เย้เยยา ยายัยยา ฮ้าฮาฮา เย้เยยา
Em Dm G C
ฮู้ฮูฮู ฮูลันลา รักเธอโอ้ความรัก
Em Dm G C
เย้เยยา ยายัยยา ฮ้าฮาฮา เย้เยยา
Em Dm G C
เธอทำได้ทุกๆอย่าง โอ้ความรัก ฉันรักเธอ
ดาวน์โหลด Full Song
กด *424243083496584
กด *424243083496584
ดาวน์โหลด Truetone
กด *424218083496584
กด *424218083496584
กด *424218083496584
ดาวน์โหลด Poly
กด *424214083496584
กด *424214083496584
กด *424214083496584
ดาวน์โหลด Mono
กด *424211083496584
กด *424211083496584
กด *424211083496584
* อัตราค่าบริการดาวน์โหลด Fullsong, Truetone, Poly, Mono : 35 บาท/เพลง
ส่งเพลงนี้ให้เพื่อน
วันที่โพสต์ : 25 ก.พ.2547,19:27น.
จำนวนผู้ชม : 111230 คน / แสดงความคิดเห็น : 28 ครั้ง
โพสต์โดย


จาก: Pakradox
Guest
เพลงแนะนำ
เพลงฮิต
เลือกแสดงเฉพาะ :

  • เจ้าชายโรแมนติค
    Guest
  • 1 ธ.ค.2550,08:41น.


    ผมลองเล่นแบบไล่สเกลดูอ่ะครับ(โพสครั้งแรกครับ ผิดพลาดยังไงก็ขออภัยด้วย)

    ตีคอร์ดC (กี่ครั้งก็ไม่รู้นะ เล่นตามจังหวะเอาอ่ะครับ อิอิ)

    (3)---55---44---333--0--------------(เบิ้ลปิ๊คเอานะครับ)
    (4)---------------------------------------
    (5)---------------------------------------
    (6)---------------------------------------

    ตีคอร์ดC อีกรอบ
    (3)---------------------0-------
    (4)-------------------4--------
    (5)---------4--5--7----------
    (6)---5--7--------------------

    ฟังเพลงนี้ไป ลองเล่นไปบ่อยๆนะ ส่วนตัวผมเล่นแบบนี้ ที่ผมบอกอาจจะเป็นแค่แนวทางSOLOเพลงนี้
  • เจ้าชายโรแมนติค
    Guest
  • 1 ธ.ค.2550,08:41น.


    ผมลองเล่นแบบไล่สเกลดูอ่ะครับ(โพสครั้งแรกครับ ผิดพลาดยังไงก็ขออภัยด้วย)

    ตีคอร์ดC (กี่ครั้งก็ไม่รู้นะ เล่นตามจังหวะเอาอ่ะครับ อิอิ)

    (3)---55---44---333--0--------------(เบิ้ลปิ๊คเอานะครับ)
    (4)---------------------------------------
    (5)---------------------------------------
    (6)---------------------------------------

    ตีคอร์ดC อีกรอบ
    (3)---------------------0-------
    (4)-------------------4--------
    (5)---------4--5--7----------
    (6)---5--7--------------------

    ฟังเพลงนี้ไป ลองเล่นไปบ่อยๆนะ ส่วนตัวผมเล่นแบบนี้ ที่ผมบอกอาจจะเป็นแค่แนวทางSOLOเพลงนี้
1

ขอเชิญร่วมแสดงความคิดเห็นครับ

คลิกที่รูป เพื่อแทรกรูปลงในข้อความ
  • Member :
    username
    password
  • Not a member :
    name
    email