Loading

คอร์ดเพลง Say U love me

ไรทาลิน (Ritalinn)

อัพโหลดคลิปเพลงนี้ที่คุณ ร้อง/เล่น ด้วยตัวคุณเอง ได้แล้ววันนี้
ระหว่างการทดสอบระบบหากพบข้อผิดพลาด กรุณาแจ้งที่นี่
กี่พันครั้งที่ฉันพูดคำว่า รัก แต่ทุกครั้งมันคือความจริงของใจ
ทุกสิ่งที่คิดไม่เคยปกปิดมันไว้ เธอรุ้ช่ายไหมว่าฉันรักเธอ

*แววตาเธอเองก็บอกว่าคิดอย่างไร แต่เธอไม่เคยจะเปิดหัวใจพูดมัน

**Say U love me พูดให้ฟังทีว่ารักกัน..ซักคำ
พูดความในใจที่ฉันรอคอยมาแสนนาน

คำว่ารักมันอาจไม่มีความหมาย ถ้าภายในใจเราไม่คิดตรงกัน
แต่ฉันรู้ว่าใจของเธอมีฉัน อย่างน้อยก็ขอได้ยินว่ามันเรื่องจริง
(*,**)

ฉันก็ไม่ได้คิดไปเองข้างเดียว บอกฉันซักครั้งได้ไหมว่าเธอรักกัน
ถ้อยคำเล็กๆน้อยๆที่มันสำคัญกับใจฉัน

Say U love me บอกกับฉันทีได้ไหมเธอ....สักคำ
ความในใจเธอกับฉัน บอกว่าเธอรักกัน ฉันยังรอเสมอพูดคำว่ารักเธอ
(**)

โว้ โฮ...โว้ โฮ
ดาวน์โหลด Full Song
กด *424243012216584
กด *424243012216584
ดาวน์โหลด Truetone
กด *424218012216584
กด *424218012216584
กด *424218012216584
ดาวน์โหลด Poly
กด *424214012216584
กด *424214012216584
กด *424214012216584
ดาวน์โหลด Mono
กด *424211012216584
กด *424211012216584
กด *424211012216584
* อัตราค่าบริการดาวน์โหลด Fullsong, Truetone, Poly, Mono : 35 บาท/เพลง
ส่งเพลงนี้ให้เพื่อน
วันที่โพสต์ : 19 ก.ค.2550,14:00น. 222.123.196.64
จำนวนผู้ชม : 24709 คน / แสดงความคิดเห็น : 28 ครั้ง
โพสต์โดย


จาก: Tnoname
เข้าร่วม: 7 ปีก่อน
เพลง: 0
โพสต์: 4
เพลงแนะนำ
เพลงฮิต
เลือกแสดงเฉพาะ :

  • ปอ หรรษา
    Guest
  • 27 ก.พ.2551,12:53น.


    intro เริ่ม 0.0
    2 /--------10--------------
    3 /-----9--------9---------
    4 /--7----------------------
    เล่น4รอบ
    Verse1 เริ่ม 0.13
    2 /------------10-10-10 10--9-9-9-9--------------
    3 /------------------------------------------9-9-9-9---
    4 /-7-7-7-7--------------------------------------------
    เล่น 8 รอบ
    ถ้าเล่นกีต้าร์อย่างเดียวจะไม่ค่อยเหมือน คับ ต้องเล่นเป็นวง มันจะเหมือน
  • ปอ หรรษา
    Guest
  • 27 ก.พ.2551,12:53น.


    intro เริ่ม 0.0
    2 /--------10--------------
    3 /-----9--------9---------
    4 /--7----------------------
    เล่น4รอบ
    Verse1 เริ่ม 0.13
    2 /------------10-10-10 10--9-9-9-9--------------
    3 /------------------------------------------9-9-9-9---
    4 /-7-7-7-7--------------------------------------------
    เล่น 8 รอบ
    ถ้าเล่นกีต้าร์อย่างเดียวจะไม่ค่อยเหมือน คับ ต้องเล่นเป็นวง มันจะเหมือน
1

ขอเชิญร่วมแสดงความคิดเห็นครับ

คลิกที่รูป เพื่อแทรกรูปลงในข้อความ
  • Member :
    username
    password
  • Not a member :
    name
    email