Loading

เพลง คิดถึงเธอ

Naga ( นากา )

อัพโหลดคลิปเพลงนี้ที่คุณ ร้อง/เล่น ด้วยตัวคุณเอง ได้แล้ววันนี้
ระหว่างการทดสอบระบบหากพบข้อผิดพลาด กรุณาแจ้งที่นี่
                              อัลบั้ม : พลังใจ

Intro : / C / G / F ( 2 times )


C G
ใจคนไม่แน่นอน
F C
มันยอกย้อนเหลือเกินนะใจ
C G
ใจอันไม่เท่าไร
F C
จะไปทางไหนก็มีแต่เรื่องราว
Am G F C
แต่ใจฉันสับสนวกวนเพราะคิดถึงเธอ
Am G F
มันพร่ำเพ้อถึงเธอทุกค่ำเช้า

C G F
* เคยลองหักห้ามใจทนไม่ไหว
C C G
ทำไมไม่รู้ทั้งวัน ใจคนไม่เหมือนกันเธอ
F C
คิดถึงฉันบ้างไหมเล่าคนดี
Am G F C
จากกันไปแสนไกลมันก็นานหลายปี
Am G F
ไม่ลืมเธอสักทีไม่รู้ทำไม

C G
** อาจเป็นเพราะรักเธอเหลือเกิน
F C Am G
เกินใจคนทนได้ อาจเป็นเพราะรักหมดทั้งใจ
F G
ก็เลยไม่เคยลืมเธอ
Am G F
อย่าปล่อยให้ฉันละเมอ ถึงเธอข้างเดียว
G C G
โอ..... ( คิดถึงเธอ )


Instru : C / G / F ( 2 times )
Am / G / F ( 2 times )

( ซ้ำ * , ** , ** )

Instru : F / G / C ( 2 times )


C F/G/C
โอ...คิดถึงเธอ
F/G C
โอ...คิดถึงเธอ

ส่งเพลงนี้ให้เพื่อน
วันที่โพสต์ : 17 ธ.ค.2546,00:13น.
จำนวนผู้ชม : 309865 คน / แสดงความคิดเห็น : 106 ครั้ง
โพสต์โดย


จาก: Maiza
Guest
เพลงแนะนำ
เพลงฮิต
เลือกแสดงเฉพาะ :

  • เด็กศรีสงคราม ส่วนสูง170 หน้าตาพอใช้ เบอร์0425993
    Guest
  • 23 มิ.ย.2547,20:49น.
    ชอบจัง     
    ((ขอคอร์ดกีต้าร์))
  • coppy
    Guest
  • 7 ม.ค.2548,13:48น.
    ขอtapหน่อยคับ
  • 007
    Guest
  • 28 ม.ค.2548,10:34น.
    ขอtapหน่อยค่ะ
  • แbงค์
    Guest
  • 8 เม.ย.2548,06:26น.
    1/--------------------------------------------------------------------------------------------------
    2/--------------------------------------------------------------------------------------------------
    3/--------------------------------------------------------------------------------------------------
    4/---------------------------------------5-5---5h7-------------------------------------------------------
    5/----------------------3-----5--5>7--------------5>7--5-5---5h7--5/3----------------------
    6/----------------3-------------------------------------------------------------5-5-------------------

    1/----------------------------------------------------------------------------------------------------
    2/---------------------------------------------------------------------------------------------------
    3/---------------------------------------------------------------------------------------------------
    4/----------------------5-5---5h7------------------------------------------------------------------
    5/-----3-----5--5>7-----------------5>7--5-5---5h7--5/3---------------------------------------
    6/-----------------------------------------------------------------5-5---------------------------------

    การแกะเพลงครั้งแลกในชีวิตเลยนะเนี่ย
    ถูกไม่ถูกก็ลองไปเล่นดูนะครับ
  • จ๋า คิมหันต์
    Guest
  • 5 พ.ค.2548,12:48น.
    เพราะมาก 
  • ...Paranoiy...
    Guest
  • 28 มิ.ย.2548,19:13น.
    ชอบเพลงนี้มากๆๆๆๆๆๆๆๆๆๆๆๆๆๆเลยคะ โดนใจจริงๆๆๆคะ   
  • 3 ก.ค.2548,12:36น.
    หามานานแย้ว
  • MaxMa
    Guest
  • 14 ก.ค.2548,15:38น.
    โอ้ เจอซะที หามาตั้งนาน
    ขอบคุนมากๆคับ
  • แฟนนากา(ไม่มีอะไรสู้เขา)
    Guest
  • 18 ก.ค.2548,23:47น.
    เพลงนี้ชอบที่สุดที่เคยฟังมา  มันโดนมาก ๆ  
  • แก๊งค์ 5 มังกร
    Guest
  • 28 ก.ค.2548,13:59น.


    เพลงนี้ดีที่สุดที่เคนฟังและเพราะมากๆๆๆๆสำคัญที่สุดคือตรงกับชีวิตคับ
    ((ขอคอร์ดกีต้าร์))
  • ม้าย 058-722096นะ
    Guest
  • 28 ก.ค.2548,14:01น.
    เมื่อไรนากาจะออกชุดใหม่นะคับ รอฟังอยู่นะคับนากา
  • kjgsgikpj
    Guest
  • 17 ส.ค.2548,09:17น.
    jsptipgk]ngpjwt[kg pju]k]e]ot[y
  • ส.solo 31
    Guest
  • 19 ส.ค.2548,11:23น.
    นากา  ผมชอบมากครับเป็นวงที่ดนตรีหนักแน่น  โดนใจเต็มๆ
  • SITTIP@NG
    Guest
  • 20 ส.ค.2548,11:52น.
    ขอ  solo  แบบชั่วๆๆๆๆหน่อยคราบพี่     
  • ต้น
    Guest
  • 20 ก.ย.2548,13:54น.
    คิดถึงนากา
  • 2524
    Guest
  • 24 ต.ค.2548,20:36น.
    ชั้นจาขอแกละนะ
    ขอเบอร์แกหน่อยดิ...
    ชั้นกลัวชั้นไม่ได้เล่น
    แล้วชั้นคิดถึงแกอ่ะ
    ชั้นไม่มีเพื่อนคุย
    แล้วชั้นจาคุยกะใครอ่ะ??
    ถ้าชั้นเหงาแล้วใครจากัดกะชั้น
    แกจาไม่คิดถึงชั้นเลยหรอ
    ว่าไงๆๆๆ..ตาบ๊องเอ๊ยยย
    น้ำเชี่ยว++ศิลปินตัวน้อยของชั้น
    ++นักเขียนตัวยง++
  • T-T
    Guest
  • 8 พ.ย.2548,12:30น.
    หาฟังได้ที่ใหนครับ   ชอบนะ  แต่หาฟังไม่ได้เลย Kapook ก็ไม่มี 
  • F16FALCON
    Guest
  • 23 พ.ย.2548,09:26น.
    อยากได้ท่อนโซโล่ด้วยนะครับท่าน
  • Little Hell
    Guest
  • 6 ม.ค.2549,16:36น.
    คือว่าผมอยากได้เพลงนี้น่ะครับไม่รู้จะทำไงดี เพื่อน ๆช่วยส่งมาให้หน่อยได้มั๊ยครับ
    anirut_ssyahoo.com
  • nan
    Guest
  • 30 ม.ค.2549,23:29น.
    น่าจะมีtabด้วยเพื่อความสมบูรณ์ของเพลง..........เนื้อหาดีมากครับ
  • ก้องสุดหล่อ
    Guest
  • 10 ก.พ.2549,15:35น.
     
    ((ขอคอร์ดกีต้าร์))
  • นายไม้คลองบง 058722096(เเเเพชรบูรณ์)))))))
    Guest
  • 15 ก.พ.2549,12:46น.
    หาฟังม่ายได้เลย
    ((ขอคอร์ดกีต้าร์))
  • สันติภาพ
    Guest
  • 24 ก.พ.2549,17:06น.
    ฟังที่ www.gmember.com ครับคุณๆ
  • กอล์ฟ
    Guest
  • 18 มี.ค.2549,04:34น.
    เพราะมากๆครับเนื้อหาฟังแล้วได้ใจจริงๆ
  • ขี้มูก
    Guest
  • 13 เม.ย.2549,13:39น.
    หา ฟัง ทีไหน อะ บอกหน่อย หาเวป ไหน ก็ไม่มี

ขอเชิญร่วมแสดงความคิดเห็นครับ

คลิกที่รูป เพื่อแทรกรูปลงในข้อความ
  • Member :
    username
    password
  • Not a member :
    name
    email