Loading

ŧ Դ֧

Է

ѾŴԻŧس ͧ/ µǤسͧ ѹ
ҧ÷ͺкҡͼԴҴ س駷


INTRO;

C Am

------------------0--------3---0-----------0---------3----3---0--------------------------7--------5---------
------------1--------1-----------1----1-------1--------------------1--3-------------5--------5-------5-----
---------0--------------0-----------0-------------0------------------------------5-------------------------5--
-----2------------------------------------------------------------------------------------------------------------
--3---------------3-------------------------3--------------------------------0----------------------------------
-------------------------------------------------------------------------------------------------------------------

Em G F

-------------------5--------------------------------3-------------------3--------------3------3-----------------------------1---
--8---5----5---------5----9---5-------------3-------3h5---3------------------3-----3-------3----------1----3---1------1-
----------5-------------------------------4-------------------------4---------4-------------4------------2---------------2------
---------------------------------------5------------------------------------5---------------------------3-------------------------
------------------------------------------------------------------------------------------------------------------------------------
------------------------------------------------------------------------------------------------------------------------------------
§ ѴҴ
C
-------------1--------------1-------------------------------0-----------0-------
---------1---------1-------------1----------------------1-----1-----------1----
------2-----------------2----------------------------0--------------0-----------
--3-------------------------------------------------------------------------------
--------------------------------------------------3-------------------------------
----------------------------------------------------------------------------------
ǹŴ Full Song
*424243015386584
*424243015386584
ǹŴ Truetone
*424218015386584
*424218015386584
*424218015386584
ǹŴ Poly
*424214015386584
*424214015386584
*424214015386584
ǹŴ Mono
*424211015386584
*424211015386584
*424211015386584
* ѵҤҺԡôǹŴ Fullsong, Truetone, Poly, Mono : 35 ҷ/ŧ
ŧ͹
ѹʵ : 22 ..2547,00:03.
ӹǹ : 326688 / ʴԴ : 53
ʵ


ҡ: miti
Guest
ŧй
ŧԵ
ʹѺʹع
͡ʴ੾ :

  • pongpak
    Guest
  • 12 ..2557,21:08. 49.230.174.20
    ѧ¡໹
1

ԭʴԴ繤Ѻ

ԡٻ áٻŧ㹢ͤ
  • Member :
    username
    password
  • Not a member :
    name
    email