Loading

เพลง คืนจันทร์

โลโซ (Loso)

อัพโหลดคลิปเพลงนี้ที่คุณ ร้อง/เล่น ด้วยตัวคุณเอง ได้แล้ววันนี้
ระหว่างการทดสอบระบบหากพบข้อผิดพลาด กรุณาแจ้งที่นี่
Intro: Cmaj7/Fmaj7(2time)
Em7/Am7/Dm7/G

Cmaj7
คืนนี้จันทร์นวลผ่อง

Fmaj7
มองแล้วคิดถึงแต่เธอ

Cmaj7
ตัวฉันยืนมองเหม่อ

Fmaj7
ถามว่าเธออยู่ที่ใด

Em7
วอนสายลมแผ่วๆ

Am7 Dm7 G
ให้ช่วยพัดพาใจไป บอกกับเธอว่าคิดถึง

Cmaj7
* จันทร์เจ้ารู้หรือเปล่าว่า

Fmaj7
ฉันเหงาเกินกว่าใคร

Cmaj7
วันที่เธอลาไกล

Fmaj7
บอกไปแล้วจะกลับมา

Em7
คืนนี้ฉันรอเธออยู่

Am7
อยากบอกให้รู้คำเดียวว่า

Dm7 G
จะรอจนกว่า ค่ำคืนนี้ไม่มีจันทร์

Fmaj7 Em7
** รัก รักเธอหมดใจรู้หรือเปล่า

Dm7
อยากมีเพียงสองเรา

G
อยู่กับจันทร์เหมือนเคย

Fmaj7 Em7
อยากฟังซ้ำ คำที่เธอเอื้อนเอย

Dm7
บอกว่ารักเหมือนเคย

G Cmaj7
อยู่ในอ้อมแขน(ฉัน)

Instru: Fmaj7/Em7 (3times)
Am7/Dm7/G/Cmaj7/G
ดาวน์โหลด Full Song
กด *424243006246584
กด *424243006246584
ดาวน์โหลด Truetone
กด *424218006246584
กด *424218006246584
กด *424218006246584
ดาวน์โหลด Poly
กด *424214006246584
กด *424214006246584
กด *424214006246584
ดาวน์โหลด Mono
กด *424211006246584
กด *424211006246584
กด *424211006246584
* อัตราค่าบริการดาวน์โหลด Fullsong, Truetone, Poly, Mono : 35 บาท/เพลง
ส่งเพลงนี้ให้เพื่อน
วันที่โพสต์ : 26 มิ.ย.2547,16:35น.
จำนวนผู้ชม : 481369 คน / แสดงความคิดเห็น : 124 ครั้ง
โพสต์โดย


จาก: Armercieus
Guest
เพลงแนะนำ
เพลงฮิต
เลือกแสดงเฉพาะ :

  • beer
    Guest
  • 3 ก.ค.2551,16:05น. 125.27.30.176
    พี่ ๆ ครับผมอยากได้แท็บนี้ทั้งเพลงครับ ผมชอบมาก ๆครับเพลงเพราะดีครับ ถึงมันจะนานแล้วแต่ยังชอบไม่รู้ลืมครับกรุณาด้วยนะครับ ขอบคุณพี่ ๆ นะครับ
  • THe bank บ้านม่วง
    Guest
  • 1 ก.ค.2547,17:01น.
    ขอวิธีการเกาเพลงนี้ให้หน่อยครับ
    ((ขอคอร์ดกีต้าร์))
  • แจ้คับ
    Guest
  • 7 ก.ค.2547,12:46น.
    ขอแทบหน่อยนะคับ เด็กไหม่คับ วงส้มโอ มกุฏเมืองราชวิทยาลัยคับ 
  • AO
    Guest
  • 8 ก.ค.2547,16:37น.
    แกะเพลงเจ็งเจ็งหน่อยครับเพราะว่าผมเล่นตามผับครับเวลาเล่นโชว์เพื่อนแล้วถ้าผิดท่อน  solo   แล้วผมจะโดนโห่เมื่อกับพี่ หนสน ผิด                                                                                                                                                          
  • แจ่มแจ๋ว
    Guest
  • 8 ก.ค.2547,22:27น.
    อย่าว่าแต่แกะผิดเลย เขียนยังเขียนผิดเลย
    ก่อนอื่นช่วยแปลคำที่คุณเขียนก่อนได้ไหมครับ หนสน?
    แล้วผมจะแกะให้คุณดู
  • สาวก x japan
    Guest
  • 8 ก.ค.2547,22:47น.
    ----------------------------------    intro
    -0-1-0----0-1-1---3- 1 0 1--
    -0------0---------2------------- อย่างนี้2รอบนะครับแล้วเดี๋ยวผมจะลงให้ใหม่นะครับ
    -2--------2--------3------------
    -3-------------------------------
    ----------------------------------
  • สาวกโลโซ
    Guest
  • 10 ก.ค.2547,13:08น.
    อยากได้ Tab เพลงคืนจันทร์เต็มๆอ่ะคับ ผมเคยได้มาแต่ทำหายไปแล้วเสียดายมากๆ
    ยอมรับว่าคนแกะๆได้เหมือนจริงๆ
  • มิติ
    Guest
  • 13 ก.ค.2547,22:42น.
    เล่นได้นานแล้วละ เก่ามาก 
    intro,;
    Cmaj7 Fmaj7 Cmaj7
    --------------------------------------------------------------------------0-----------0---------------------------------------
    ---0-----1---0----------------0---1---------------3-----1----0--1------1------------0-----1---0-----------0------1---
    ---0------------------0----------------------2--------------------------------2----------0-------------0--------------------
    ---2----------------------2------------------3--------------------------------------------2----------------2-----------------
    ---3---------------------------------------------------------------------------------------3-----------------------------------
    --------------------------------------------------------------------------------------------------------------------------------

    Fmaj7 Em Am7
    -----------------------------------------------------0------1----0-------------------------------3-----0------------------
    --------3------1h3h1-----------1---------3-----0------------------0-------------------------1-----------3------1-----
    --2--------------------------2----------2----------0----------------------0-------------0------2-------------------------
    --3--------------------------------------------------2--------------------------0h2-------------2-------------------0----
    -------------------------------------------------------------------------------------------------------------------------------
    ------------------------------------------------------------------------------------------------------------------------------

    Am Dm7 G
    ------------0-------------------------------------------------------------1-----------------------------------------------------
    -----------------1--------0----------------1-------0-----1-------------------------3-----1------0--------------1--------3--
    -------2------------2-----------------2--------2-------------------2--------2-----------------------------0------------------
    ---2-----------------------------0------------------------------------------------------------------------0-----0-----0--------
    -----------------------------------------------------------------------------------------------------------------------------------
    -----------------------------------------------------------------------------------------------------3------------------------3-

    ถ้าจะให้ทั้งเลพงหาสาวให้คนดิ ไม่ขยันเขียน
  • ทิวคุง
    Guest
  • 14 ก.ค.2547,18:15น.
     ขอsoloด้วยดิ..........
    ((ขอคอร์ดกีต้าร์))
  • มิติ
    Guest
  • 14 ก.ค.2547,19:58น.
    wait..เล่นสนู๊กอยู่ครับ จบเกมจะมาเขียนให้  
  • miti
    Guest
  • 14 ก.ค.2547,21:13น.
    เอาไปเลยโซโล แต่ถ้าจะให้ดีหาเพื่อนมาเกาให้คุณโซโลดิ พริ้ว


    SOLO:

    Fmaj7 Em7 Dm7
    ---------------------------------------------------------------------------------------------------------------------------------
    ---------------------------------------------------------------------------------------------------------------------------------
    --2/5----------5-----5------7/9-----7--5----4------4----5---7---------------------5-------5-------5---7/9----7----5-
    ------------7------7---------------------------------------------------5/7h9h7/5----------7-----7-------------------------
    ----------------------------------------------------------------------------------------------------------------------------------
    ----------------------------------------------------------------------------------------------------------------------------------


    Em Fmaj7 Em Am
    --------------------------------------------------------------------------5------------------------8/-8-------------8---10---
    -------------------------------------------------------------3/5----8--------5/3---3/5----8/-----------8/10--------------
    ---4-------------------------5------5-----7--7/9----5-----------------------------------------------------------------------
    ---------5-----------------------7----------------------------------------------------------------------------------------------
    --------------5/7----7---------------------------------------------------------------------------------------------------------
    ---------------------------------------------------------------------------------------------------------------------------------


    Dm7 G7 C
    --10/--12h10----10--------------10----8---7---------------------------------------------------------------------------
    -----------------------------/10-----------------------8----------------------------------8----------10----------8/--------
    --------------------------------------------------------------9/7---------5-------7/9-----------------------9--------------
    --------------------------------------------------------------------------------------------------------------------------------
    -------------------------------------------------------------------------------------------------------------------------------
    --------------------------------------------------------------------------------------------------------------------------------

    8/ตัวสุดท้ายกดอย่างแรงเอื้อนไว้

  • Guest
  • 18 ก.ค.2547,10:43น.
    ฝาก ๕ นาที



    Em A Bm F#5 A5 B5 G7 G#5 A5
    -----------------------------------------------------------------------------------------------------------------------------------------
    ---------------2--2/3 2h3h2-------------------------5-----3---2-----3---2h3h2------------------------------------------------
    ----------4-------------------------4----2---------4--------------2--------------------4---2---4------------------------------------
    -----4/-----------------------------------------5----------5-------2-------------------------------------------------------------------
    --------------------------------------------------------------------------------------------------------4--4----7--9----5----6-----7-
    --------------------------------------------------------------------------------------------------------2--2----5--7----3----4-----5-

    ดู เว.......ลา ทำ...ไม เร็ว........จัง ไม่เหมือน......ดัง ที่ ตอน...รอ........คอย
    B7
    ---------------------------------------------------------------------------------------------------------------------------------
    -10--10----10----10-------10---10------10-------10---10-------10-------10---------10----10-------10---------
    --8----8-----8------8---------8-----8-------8---------8-----8---------8--------8-----------8------8---------8----------
    --7----7-----7------7---------7-----7-------7---------7-----7---------7--------7-----------7------7---------7----------
    --9----9-----9------9---------9-----9-------9---------9-----9---------9--------9-----------9------9---------9----------
    ---------------------------------------------------------------------------------------------------------------------------------

    ยืน..คน......เดียว คน เดียว...ใจ....ลอย คอย รัก อยู่ เธอ...ไม่
    B7 Em
    ----------------------------------------------------------------------------------------0------------------------0---------------
    -10---10-----10------10--------10----10-----10-------10-----------------0-----------------------0--------------------
    --8----8-------8--------8---------8------8-------8---------8-------------0------------------------0------------------------
    --7----7-------7--------7---------7------7-------7---------7---------2----------------------2------------------------------
    --9----9-------9--------9---------9------9------9----------9-----------------------------------------------------------------
    -----------------------------------------------------------------------------------------------------------------------------------

    มา ไม่.....มา.. สัก ที
    F#m11 G6
    ----------------0----------------------0---------------------------------0---------------------
    -----------0-----------------------0---------------------------------3-------------------------
    ------2------------------------2--------------------------------4------------------------------
    -4------------------------4-------------------------------5-------------------------------------
    --------------------------------------------------------------------------------------------------
    --------------------------------------------------------------------------------------------------
  • .
    Guest
  • 18 ก.ค.2547,10:46น.



    Em A Bm F#5 A5 B5 G7 G#5 A5
    -----------------------------------------------------------------------------------------------------------------------------------------
    ---------------2--2/3 2h3h2-------------------------5-----3---2-----3---2h3h2------------------------------------------------
    ----------4-------------------------4----2---------4--------------2--------------------4---2---4------------------------------------
    -----4/-----------------------------------------5----------5-------2-------------------------------------------------------------------
    --------------------------------------------------------------------------------------------------------4--4----7--9----5----6-----7-
    --------------------------------------------------------------------------------------------------------2--2----5--7----3----4-----5-

    ดู เว.......ลา ทำ...ไม เร็ว........จัง ไม่เหมือน......ดัง ที่ ตอน...รอ........คอย
    B7
    ---------------------------------------------------------------------------------------------------------------------------------
    -10--10----10----10-------10---10------10-------10---10-------10-------10---------10----10-------10---------
    --8----8-----8------8---------8-----8-------8---------8-----8---------8--------8-----------8------8---------8----------
    --7----7-----7------7---------7-----7-------7---------7-----7---------7--------7-----------7------7---------7----------
    --9----9-----9------9---------9-----9-------9---------9-----9---------9--------9-----------9------9---------9----------
    ---------------------------------------------------------------------------------------------------------------------------------

    ยืน..คน......เดียว คน เดียว...ใจ....ลอย คอย รัก อยู่ เธอ...ไม่
    B7 Em
    ----------------------------------------------------------------------------------------0------------------------0---------------
    -10---10-----10------10--------10----10-----10-------10-----------------0-----------------------0--------------------
    --8----8-------8--------8---------8------8-------8---------8-------------0------------------------0------------------------
    --7----7-------7--------7---------7------7-------7---------7---------2----------------------2------------------------------
    --9----9-------9--------9---------9------9------9----------9-----------------------------------------------------------------
    -----------------------------------------------------------------------------------------------------------------------------------

    มา ไม่.....มา.. สัก ที
    F#m11 G6
    ----------------0----------------------0---------------------------------0---------------------
    -----------0-----------------------0---------------------------------3-------------------------
    ------2------------------------2--------------------------------4------------------------------
    -4------------------------4-------------------------------5-------------------------------------
    --------------------------------------------------------------------------------------------------
    --------------------------------------------------------------------------------------------------
  • ทำไห้สั้นเท่านั้นเอง
    Guest
  • 1 ส.ค.2547,21:58น.
    Intro: Cmaj7/Fmaj7(2time)
    Em7/Am7/Dm7/G
    Cmaj7
    คืนนี้จันทร์นวลผ่อง
    Fmaj7
    มองแล้วคิดถึงแต่เธอ
    Cmaj7
    ตัวฉันยืนมองเหม่อ
    Fmaj7
    ถามว่าเธออยู่ที่ใด
    Em7
    วอนสายลมแผ่วๆ
    Am7 Dm7 G
    ให้ช่วยพัดพาใจไป บอกกับเธอว่าคิดถึง
    Cmaj7
    * จันทร์เจ้ารู้หรือเปล่าว่า
    Fmaj7
    ฉันเหงาเกินกว่าใคร
    Cmaj7
    วันที่เธอลาไกล
    Fmaj7
    บอกไปแล้วจะกลับมา
    Em7
    คืนนี้ฉันรอเธออยู่
    Am7
    อยากบอกให้รู้คำเดียวว่า
    Dm7 G
    จะรอจนกว่า ค่ำคืนนี้ไม่มีจันทร์
    Fmaj7 Em7
    ** รัก รักเธอหมดใจรู้หรือเปล่า
    Dm7
    อยากมีเพียงสองเรา
    G
    อยู่กับจันทร์เหมือนเคย
    Fmaj7 Em7
    อยากฟังซ้ำ คำที่เธอเอื้อนเอย
    Dm7
    บอกว่ารักเหมือนเคย
    G Cmaj7
    อยู่ในอ้อมแขน(ฉัน)

    Instru: Fmaj7/Em7 (3times)
    Am7/Dm7/G/Cmaj7/G

  • games
    Guest
  • 11 ส.ค.2547,16:04น.
    ช่วยอธิบายพวก 8/10  5/7h9h
  • จิ
    Guest
  • 20 ส.ค.2547,12:31น.
    ยังไม่ค่อยเข้าใจอ่ะคับงงอยู่ตรงที่พี่ๆเขียนเป็ยนตัวเลขอ่ะคับคือยังดีอยู่เลยไม่ค่อยเข้าใจคับลบกวนพี่พี่ข่วยอธิบายทีคับผมจะเป็นพระคุณอย่างสุดคับ
  • จิ
    Guest
  • 20 ส.ค.2547,12:31น.
    ยังไม่ค่อยเข้าใจอ่ะคับงงอยู่ตรงที่พี่ๆเขียนเป็ยนตัวเลขอ่ะคับคือยังดีอยู่เลยไม่ค่อยเข้าใจคับลบกวนพี่พี่ข่วยอธิบายทีคับผมจะเป็นพระคุณอย่างสุดคับ
  • แซม
    Guest
  • 27 ส.ค.2547,12:18น.
    ก็ดเหมือนกัน   ผมชอบเรื่องแบบนี้
  • บิ๊ก
    Guest
  • 7 ก.ย.2547,22:20น.
    เก่งๆกันดีจังคับทำออกมาบ่อยๆนะคับ 
  • ytrsytrsy
    Guest
  • 13 ก.ย.2547,13:18น.
          y5yttytytytyy
    ((อัพเดทแหล่งทดลองฟัง)) ((ขอคอร์ดกีต้าร์))
  • sport
    Guest
  • 17 ก.ย.2547,16:08น.
    ยังงงนิดหน่อยคับบบบบบ
    ((อัพเดทแหล่งทดลองฟัง))
  • ไร้เดียงษา
    Guest
  • 21 ก.ย.2547,09:56น.
    8/ 8   จะดีดไงอะครับ
    2h3h2 คือไงอะครับ ดีดงี้ป่าวครับ ดีดสาย ช่อง2 กระดิกนิ้วช่อง 3 แล้วดีด 2อีกทีหรอครับ
    อธิบายทีครับขอบใจมากๆๆครับ
  • สุดยอดมือกีตาร์
    Guest
  • 4 ม.ค.2548,15:54น.
    แค่นี้ก็เล่นได้ 
  • Ez_oAkz
    Guest
  • 19 เม.ย.2548,21:08น.
    แค่นี้จบเพลงยังอ่า ถ้ายังไม่จบขอต่อๆ
  • 18 ก.ค.2548,21:13น.
    เพลงนี้เล่นยากดีแต่ชอบมาก
  • เอก วงไม่มีชื่อ อุดร
    Guest
  • 24 ต.ค.2548,14:15น.
       ถ้ามีสมองก้อแกะเอาเองทำไมต่อให้เอาบอกด้วย   อยากเล่นให้เก่งต้องเรียนเองเข้าใจเองดิถึงจะดี   
  • น้องนา
    Guest
  • 2 พ.ย.2548,14:23น.
    รักพี่เสกมากค่ะ
  • kiat
    Guest
  • 6 พ.ย.2548,18:21น.
    good
    ((ขอคอร์ดกีต้าร์))
  • 1
    Guest
  • 26 ธ.ค.2548,18:17น.
    ไม่คอยเหมือนวะ 
  • คลั่งไคล้LOSO
    Guest
  • 2 ก.พ.2549,14:17น.
    ขอบคุณมั่ก ๆ

ขอเชิญร่วมแสดงความคิดเห็นครับ

คลิกที่รูป เพื่อแทรกรูปลงในข้อความ
  • Member :
    username
    password
  • Not a member :
    name
    email