Loading

เพลง จูบ

เจ็ตเซ็ตเตอร์ (Jetseter)

อัพโหลดคลิปเพลงนี้ที่คุณ ร้อง/เล่น ด้วยตัวคุณเอง ได้แล้ววันนี้
ระหว่างการทดสอบระบบหากพบข้อผิดพลาด กรุณาแจ้งที่นี่
ชื่อเพลง : จูบ (Kiss) 
ศิลปิน : เจ็ตเซ็ตเตอร์ (Jetset'er)
นั่งอยู่ตรงนี้ข้างกายฉันก็มีเธออยู่
ก็ลองมาคิดดู เรานั้นโชคดีกว่าใคร

* เพราะมีเธอคนนี้เป็นที่รัก
และฉันไม่ได้ฝันไป ขอให้ลมช่วยพัดพาหัวใจ
สองเราให้ลอยไป ในคืนนี้ โอ้ โอ

** Oh baby ฉันรักเธอเท่านั้น
ใต้แสงจันทร์มีเพียงเราสอง
นั่งมองแสงดาวที่พรั่งพราว
บนฟ้าไกลไปด้วยกัน
เปรียบดั่งความฝันในเวลานี้
เมื่อฉันมีเธออยู่แนบชิดกาย
ด้วยสายตาและสัมผัสด้วยรักที่เรามีให้กัน
โอ้ฉันจะจูบเธอ

ไม่อาจจะฝืนความสวยของเธอได้ baby
ต้องยอมรับอีกซักที ว่าเราโชคดีกว่าใคร

(ซ้ำ */ **)

(ซ้ำ **)

Oh baby, Oh baby, Oh baby
โอ้ โอ ฉันจะจูบเธอ
ส่งเพลงนี้ให้เพื่อน
วันที่โพสต์ : 2 ธ.ค.2549,11:54น. 58.8.168.152
จำนวนผู้ชม : 351323 คน / แสดงความคิดเห็น : 100 ครั้ง
โพสต์โดย


จาก: aMiRizZe
เข้าร่วม: 9 ปีก่อน
เพลง: 0
โพสต์: 3
เพลงแนะนำ
เพลงฮิต
เลือกแสดงเฉพาะ :

  • 1111
    Guest
  • 20 มิ.ย.2551,14:11น. 58.147.85.2
    5555ไอห่าไอพีก็เดียวกัน
  • -*-
    Guest
  • 2 ธ.ค.2549,13:23น.
    -*-
    ((ขอคอร์ดกีต้าร์))
  • sm-4ever
    Guest
  • 2 ธ.ค.2549,20:46น.
    ขอคอร์ดเพลงนี้ค้าบบ

    ชอบเพลงนี้มากๆเลย

    อยากได้ ๆๆ อยากเล่นให้เพลงฟังอ่ะ

    ขอหน่อยนะค้าบบ
    ((ขอคอร์ดกีต้าร์))
  • เอ
    Guest
  • 2 ธ.ค.2549,21:33น.
    แกะกันหน่อยดิ
    Solo
    นะนะน
  • POO
    Guest
  • 2 ธ.ค.2549,22:40น.
    พวกวิญญาณบ้านี่ยังตามมาหลอกหลอนได้ทุกหน้า เซ็งเลย
    ((ขอคอร์ดกีต้าร์))
  • aOm
    Guest
  • 3 ธ.ค.2549,11:06น.
    จูบ 
    ศิลปิน : เจ็ตเซ็ตเตอร์ (Jetseter)
    ชื่อเพลง : จูบ (Kiss)
    ศิลปิน : เจ็ตเซ็ตเตอร์ (Jetset'er)

    intro G/G/Bm/Bm/C/Bm/Am/D/D
    G Bm
    นั่งอยู่ตรงนี้ข้างกายฉันก็มีเธออยู่
    C D
    ก็ลองมาคิดดู เรานั้นโชคดีกว่าใคร

    D C Bm Em
    * เพราะมีเธอคนนี้เป็นที่รัก
    C D D C Bm Em
    และฉันไม่ได้ฝันไป ขอให้ลมช่วยพัดพาหัวใจ
    Am Am D
    สองเราให้ลอยไป ในคืนนี้ โอ้ โอ

    G
    ** Oh baby ฉันรักเธอเท่านั้น
    Bm
    ใต้แสงจันทร์มีเพียงเราสอง
    C Bm
    นั่งมองแสงดาวที่พรั่งพราว
    Am D
    บนฟ้าไกลไปด้วยกัน
    G
    เปรียบดั่งความฝันในเวลานี้
    Bm Em
    เมื่อฉันมีเธออยู่แนบชิดกาย
    C Bm Am D
    ด้วยสายตาและสัมผัสด้วยรักที่เรามีให้กัน
    G D
    โอ้ฉันจะจูบเธอ
    G Bm
    ไม่อาจจะฝืนความสวยของเธอได้ baby
    C D
    ต้องยอมรับอีกซักที ว่าเราโชคดีกว่าใคร

    D C Bm Em
    เพราะมีเธอคนนี้เป็นที่รัก
    C D D C Bm Em
    และฉันไม่ได้ฝันไป ขอให้ลมช่วยพัดพาหัวใจ
    Am Am D
    สองเราให้ลอยไป ในคืนนี้ โอ้ โอ

    G
    Oh baby ฉันรักเธอเท่านั้น
    Bm
    ใต้แสงจันทร์มีเพียงเราสอง
    C Bm
    นั่งมองแสงดาวที่พรั่งพราว
    Am D
    บนฟ้าไกลไปด้วยกัน
    G
    เปรียบดั่งความฝันในเวลานี้
    Bm Em
    เมื่อฉันมีเธออยู่แนบชิดกาย
    C Bm Am D
    ด้วยสายตาและสัมผัสด้วยรักที่เรามีให้กัน
    G
    โอ้ฉันจะจูบเธอ

    Solo:G/G/Bm/Bm/C/C/D/D#

    G#
    ** Oh baby ฉันรักเธอเท่านั้น
    Cm
    ใต้แสงจันทร์มีเพียงเราสอง
    C# Cm
    นั่งมองแสงดาวที่พรั่งพราว
    A#m D#
    บนฟ้าไกลไปด้วยกัน
    G#
    เปรียบดั่งความฝันในเวลานี้
    Cm Fm
    เมื่อฉันมีเธออยู่แนบชิดกาย
    C# Cm A#m D#
    ด้วยสายตาและสัมผัสด้วยรักที่เรามีให้กัน
    G#
    โอ้ฉันจะจูบเธอ

    Outtro: G#/G#/Cm/Cm/C#/Cm/A#m/D# (Til Fade)
    Oh baby, Oh baby, Oh baby
    โอ้ โอ ฉันจะจูบเธอ



    ---- ลอง ๆ นะ ผิด ตรงไหนแก้ให้หน่อยนะ ------------------------
  • iNdy iNtown
    Guest
  • 3 ธ.ค.2549,12:10น.
    ชอบ Jetseter  โคดรๆเลย
  • beer427@hotmail.com
    Guest
  • 3 ธ.ค.2549,15:05น.
    สมัครสามชิกไม่ได้อ่ะ


    อยากลงเพลงบ้างน่ะคับ
  • aOm
    Guest
  • 4 ธ.ค.2549,13:14น.
    จูบ 
    ศิลปิน : เจ็ตเซ็ตเตอร์ (Jetseter)
    ชื่อเพลง : จูบ (Kiss)
    ศิลปิน : เจ็ตเซ็ตเตอร์ (Jetset'er)

    intro G/G/Bm/Bm/C/Bm/Am/D/D
    G Bm
    นั่งอยู่ตรงนี้ข้างกายฉันก็มีเธออยู่
    C D
    ก็ลองมาคิดดู เรานั้นโชคดีกว่าใคร

    D C Bm Em
    * เพราะมีเธอคนนี้เป็นที่รัก
    C D D C Bm E
    และฉันไม่ได้ฝันไป ขอให้ลมช่วยพัดพาหัวใจ
    Am Am7 D
    สองเราให้ลอยไป ในคืนนี้ โอ้ โอ

    G
    ** Oh baby ฉันรักเธอเท่านั้น
    Bm
    ใต้แสงจันทร์มีเพียงเราสอง
    C Bm
    นั่งมองแสงดาวที่พรั่งพราว
    Am D
    บนฟ้าไกลไปด้วยกัน
    G
    เปรียบดั่งความฝันในเวลานี้
    Bm Em
    เมื่อฉันมีเธออยู่แนบชิดกาย
    C Bm Am D
    ด้วยสายตาและสัมผัสด้วยรักที่เรามีให้กัน
    G D
    โอ้ฉันจะจูบเธอ
    G Bm
    ไม่อาจจะฝืนความสวยของเธอได้ baby
    C D
    ต้องยอมรับอีกซักที ว่าเราโชคดีกว่าใคร

    D C Bm Em
    เพราะมีเธอคนนี้เป็นที่รัก
    C D D C Bm E
    และฉันไม่ได้ฝันไป ขอให้ลมช่วยพัดพาหัวใจ
    Am Am7 D
    สองเราให้ลอยไป ในคืนนี้ โอ้ โอ

    G
    Oh baby ฉันรักเธอเท่านั้น
    Bm
    ใต้แสงจันทร์มีเพียงเราสอง
    C Bm
    นั่งมองแสงดาวที่พรั่งพราว
    Am D
    บนฟ้าไกลไปด้วยกัน
    G
    เปรียบดั่งความฝันในเวลานี้
    Bm Em
    เมื่อฉันมีเธออยู่แนบชิดกาย
    C Bm Am D
    ด้วยสายตาและสัมผัสด้วยรักที่เรามีให้กัน
    G
    โอ้ฉันจะจูบเธอ

    Solo:G/G/Bm/Em/Am/C/D/D#

    G#
    ** Oh baby ฉันรักเธอเท่านั้น
    Cm
    ใต้แสงจันทร์มีเพียงเราสอง
    C# Cm
    นั่งมองแสงดาวที่พรั่งพราว
    A#m D#
    บนฟ้าไกลไปด้วยกัน
    G#
    เปรียบดั่งความฝันในเวลานี้
    Cm Fm
    เมื่อฉันมีเธออยู่แนบชิดกาย
    C# Cm A#m D#
    ด้วยสายตาและสัมผัสด้วยรักที่เรามีให้กัน
    G#
    โอ้ฉันจะจูบเธอ

    Outtro: G#/G#/Cm/Cm/C#/Cm/A#m/D# (Til Fade)
    Oh baby, Oh baby, Oh baby
    โอ้ โอ ฉันจะจูบเธอ
  • ActioN
    Guest
  • 11 ธ.ค.2549,17:00น.
    ชอบเจสเซสเตอร์มากๆครับ
    ลายเบสเพราะมากๆ
  • 11 ธ.ค.2549,22:38น.
    มือเบสวงนี้ สุดยอดเลยครับ
  • 000
    Guest
  • 23 ธ.ค.2549,16:39น.
    ไอพวกเนี่ย เมื่อไรจะหมดซะที เวบนี้เปนเวบเกี่ยวกับเพลง ไม่น่าจะมีพวก เวร-ตะ-ไล เข้ามาโพส
    รู้มั้ยว่าทันทำให้คนที่เขาเข้ามาดูเดือดร้อน
  • AS7
    Guest
  • 25 ธ.ค.2549,19:34น.
    โรแมนติกมากกก แต่งเพลงยังงัยถึงเก่งขนาดนี้
  • maoemo
    Guest
  • 29 ธ.ค.2549,10:20น.
     ลอง ๆ มั่วไปนะ
    โซโลนี่ไวมาก(4โนตต่อ1จังหวะ)
    6>----8-10----------------------------------------------------------------
    5>-----------7-9----7-9-10------9-10---------10---------------------
    4>-----------------------------7-----------7-9-------7-9-10--------------
    3>----------------------------------------------------------------7-9-7-----

    6>---------------------------------------------------------------------------
    5>---------------------------------------------------------------------------
    4>----9-----------------9----(9-10-12-10-10-9-10)x2รอบ
    3>------7-9-10--7-9------------------------------------------------------

    3>9--9--9----10-10--(11)--(12) <--2ตัวหลังนี่ดีดพร้อมกัน
    2>--8--8--8-----9-----(10)--(11) (อันนี้มั่วนะ ได้ยินไม่ชัด แต่ก็พอถูๆไถๆไปได้)
    1>
  • n'p
    Guest
  • 29 ธ.ค.2549,20:50น.
    เพราะมากๆอ่า ครายแกะเก่งๆแกะหน่อยนะจ๊ะ
  • TOT
    Guest
  • 2 ม.ค.2550,18:32น.
    oh nice tab
  • Small backrest
    Guest
  • 14 ม.ค.2550,11:43น.
    * * * * เ พ ล ง เ ค้ า เ ยี่ ย ม จิ ง ๆ เ ย ย.........
  • บิน
    Guest
  • 22 ม.ค.2550,11:19น.
    ขอแท๊ป เบส หน่อยครับ ((ขอคอร์ดกีต้าร์))
  • คนที่รักเทอเสมอมา
    Guest
  • 27 ม.ค.2550,16:18น.
    พี่แพรวหายยังนะ
  • อยากได้คอร์ดมากๆ
    Guest
  • 30 ม.ค.2550,22:06น.
    ขอบใจมากๆ นะ
    เล่นได้จิงป่ะอ่ะ
    มั่นใจมั้ยว่าแกะถูกอ่ะ
    กลัวมันผิดอ่ะ
    มีคัยแกะได้อีกป่ะ
    ช่วยเอามาโพสต์หน่อยดิขอบคุณค่า
  • เพื่อน maoemo
    Guest
  • 31 ม.ค.2550,02:09น.
    ผมว่าอันนี้ท่าจะเหมือนกว่าน่ะ
    6>----8-10----------------------------------------------------------------
    5>-----------7-9----7-9-10------9-10---------10---------------------
    4>-----------------------------7-----------7-9-------7-9-10--------------
    3>----------------------------------------------------------------7-9-7-----

    6>---------------------------------------------------------------------------
    5>---------------------------------------------------------------------------
    4>----9-----------------9----(9-10-12-10-10-9-10)x2รอบ
    3>------7-9-10--7-9------------------------------------------------------

    3>9--9--9----10----------------------
    2>--8--8--8-----8--9--11--------------
    1>----------------------------8--9--11--------

    ปล ผมเล่นเปีนโนอ่ะคับ
    ผิดอย่าว่ากันนะคับ
  • Gozz
    Guest
  • 3 ก.พ.2550,14:38น.
    ก็เหมือนนะ แต่โซโลโครดไวเลย เล่นยากมั่กๆ
  • archdora
    Guest
  • 25 ก.พ.2550,08:20น.
    ใครว่างแกะเบสให้หน่อยสิ -*- ((ขอคอร์ดกีต้าร์))
  • bass
    Guest
  • 5 มี.ค.2550,04:29น.
    ครายแกะแทป เบส โซโล่ เพลงนี้ ด้าย
    ลงให้หน่อยน้ะ
  • ขอนะ
    Guest
  • 7 มี.ค.2550,14:41น.
    ขอเบสม่างงงงงงงงงงงงง
  • 13 มี.ค.2550,12:02น.

    อื้มมมม โซโล่ กดยากอ่ะ ลองนี่ นะ (มองยากด้วยฮะ - -*)
    3>---------------------------------------------------------------------------------------9-9s10-9----9-
    4>--------------------------------------------9-------9-10-12-12s14--12-9-12--------------10--9
    5>-------------9------9-10-12--9-10-12----12-------------------------------------------------------
    6>--8-10-12----12--------------------------------------------------------------------------------------
    *เปลี่ยนคีย์
    2>------------------------------------------------------8----8----8---------9------9------9------------
    3>------------------------------------------------8s9----9----9----9s10----10----10---------------
    4>-(9-10-10s12--10-10-9-9s10)*2---------------------------------------------------------------

    *จาก คีย์ G ไปเป็น คีย์ G# * *** เหตุการณ์เปลี่ยนคีย์
  • 13 มี.ค.2550,12:24น.

    สำหรับ Tab Bass ช่วงอินโทร นะครับ
    1>--------------------------------------------------------------------------
    2>--------5-5----4-5------5-5----4-5----------------------------------
    3>------5-------5--------5--------5------7-7--5---5-6-7-7------7---
    4>--\3-----------------3-----------------------7---7---------7-0-7--7

    1>----4s5-4---------4s5-4---------------------------------------7s9--7
    2>--5---------5-----5--------5-------7-7--5-7---------------------------
    3>3-------------3-2------------3---7-----7------5-5-5------5-----------
    4>----------------------------------5----------------------3s5-------------

    แบ่งโน้ตห้ายถูกด้วยนะงับ ถ้าแปลกใจ แอดเมลมาฟังได้นะคับ firstjang999hotmail.com
  • สุดยอด
    Guest
  • 25 มี.ค.2550,15:29น.
    อยากได้ Tab บสอีกอ่าคัรบ


    งง มากมายเลยครับ
  • 26 มี.ค.2550,09:59น.
    กำ ถ้างง แอดมาถามได้ ไงคับ

ขอเชิญร่วมแสดงความคิดเห็นครับ

คลิกที่รูป เพื่อแทรกรูปลงในข้อความ
  • Member :
    username
    password
  • Not a member :
    name
    email