Loading

เพลง ฉันไม่ใช่

เดอะซัน(THE SUN)

อัพโหลดคลิปเพลงนี้ที่คุณ ร้อง/เล่น ด้วยตัวคุณเอง ได้แล้ววันนี้
ระหว่างการทดสอบระบบหากพบข้อผิดพลาด กรุณาแจ้งที่นี่


Title :ฉันไม่ใช่
Artist : เดอะซัน(The Sun)


INTRO:

G D C G
------------------------------------------------------------------------------------------------------------------------------
--------------------3----------------------------3-------------3---3h5-----5------3h5h3---3---------3---------------
-0h2---2h4-------------2h4h2h0---2-------------2h4-------------------------------------------0-----------0h2---
----------------0-------0----------------0---0-----0---------------------5----5-------------------0----------0----------
---------------------------------------------------------------------3--------------------------------------------------------
---------3----------------------------------------------------------------------------------------3-------------------------
บอกกับ
G D C G
-----------------------------------------------------------------------------------------------------------------3------------
-------------3------------------------------3--------------------------------1----------3-------------------------3--------
--2h4--------------2h42h0-----2----------------2h4h2h0---------0-------------------0------------0---------0----
---------0-------0-----------------0----0-------0--------------------2-------------------4------------0----------------0-
----------------------------------------------------------------------3-----------3/5----------------------------------------
--3--------------------------------------------------------------------------------------------------3-----------------------
ส่งเพลงนี้ให้เพื่อน
วันที่โพสต์ : 20 ก.ค.2547,00:03น.
จำนวนผู้ชม : 140782 คน / แสดงความคิดเห็น : 48 ครั้ง
โพสต์โดย


จาก: miti
Guest
เพลงแนะนำ
เพลงฮิต
ผู้สนับสนุน
เลือกแสดงเฉพาะ :

1

ขอเชิญร่วมแสดงความคิดเห็นครับ

คลิกที่รูป เพื่อแทรกรูปลงในข้อความ
  • Member :
    username
    password
  • Not a member :
    name
    email