Loading

เพลง ตลอดเวลา

พงษ์สิทธิ์ คำภีร์

อัพโหลดคลิปเพลงนี้ที่คุณ ร้อง/เล่น ด้วยตัวคุณเอง ได้แล้ววันนี้
ระหว่างการทดสอบระบบหากพบข้อผิดพลาด กรุณาแจ้งที่นี่
Print

ตลอดเวลา

intro : A E7 F#m E7

A E7 F#m E7 A E7 F#m
พักสายตาเถอะนะคนดี หลับลงตรงนี้ ที่ๆมีแต่เราสองคน

A E7 F#m E7 A E7 F#m
ผ่านเรื่องราวผ่านงานผ่านคน สับสนหลายความ บางเวลาต้องการสักคน

E7 D E7
ไว้คอยปลอบใจ เข้าใจพูดคุย

solo : A E7 F#m E7 D E7

A E7 F#m E7 A E7 F#m
ความรักเอย งดงามอย่างนี้ จนชั่วชีวี โหยหาความรักไม่เคยพอ

A E7 F#m E7 A E7 F#m
อยากให้เธอเคียงข้างอย่างนี้ บอกรักอีกที อยู่ใกล้กัน ตลอดเวลา

A E7 F#m E7 A E7 F#m E7 A
* พักกาย พักใจ หลับตาฝันดี รักเอยรักที่ เข้าใจถึงกัน

( * )
http://www.musicatm.com/thai/คอร์ดเพลง-ตลอดเวลา-พงษ์สิทธิ์-คำภีร์-1580.html
ดาวน์โหลด Truetone
กด *424218015186584
กด *424218015186584
กด *424218015186584
ดาวน์โหลด Poly
กด *424214015186584
กด *424214015186584
กด *424214015186584
ดาวน์โหลด Mono
กด *424211015186584
กด *424211015186584
กด *424211015186584
* อัตราค่าบริการดาวน์โหลด Fullsong, Truetone, Poly, Mono : 35 บาท/เพลง
ส่งเพลงนี้ให้เพื่อน
วันที่โพสต์ : 9 มี.ค.2547,12:06น.
จำนวนผู้ชม : 684129 คน / แสดงความคิดเห็น : 89 ครั้ง
โพสต์โดย


จาก: เด็กขอนเเก่น
Guest
เพลงแนะนำ
เพลงฮิต
เลือกแสดงเฉพาะ :

  • web
    Guest
  • 28 มิ.ย.2556,16:38น. 124.120.6.25
  • web
    Guest
  • 28 มิ.ย.2556,16:38น. 124.120.6.25
  • ไไไไ
    Guest
  • 9 ต.ค.2556,13:01น. 58.8.76.73
    ดีด ได้ มึง เก่ง วางคอด มั้ว เลย
  • Berdon
    Guest
  • 9 มี.ค.2547,12:17น.
    อยากได้ tab ของเพลง ผีโรงเย็น จังครับ anon_36352@thai.com 
  • Berdon
    Guest
  • 9 มี.ค.2547,12:17น.
    อยากได้ tab ของเพลง ผีโรงเย็น จังครับ anon_36352@thai.com 
  • Berdon
    Guest
  • 9 มี.ค.2547,12:17น.
    อยากได้ tab ของเพลง ผีโรงเย็น จังครับ anon_36352@thai.com 
  • Berdon
    Guest
  • 9 มี.ค.2547,12:17น.
    อยากได้ tab ของเพลง ผีโรงเย็น จังครับ anon_36352@thai.com 
  • Ibanez SoundGearz
    Guest
  • 9 มี.ค.2547,13:10น.
    อยากได้ tab เพลงนี้จังครับ
  • เด็กขอนเเก่น
    Guest
  • 9 มี.ค.2547,13:24น.
    อืม...เดี๋ยวหาให้จ้ะ... 
  • เด็กขอนเเก่น
    Guest
  • 9 มี.ค.2547,13:28น.
    tabเพลงนี้ ไม่รู้ว่ามีรึเปล่านะ  จะลองหาดู ถ้าไม่มีก็ขอโทษละกันจ้ะ.... 
  • เด็กขอนเเก่น
    Guest
  • 9 มี.ค.2547,13:39น.
    มีเเต่คอร์ด ผีโรงเย็นเอาบ่
  • Ibanez SoundGearz
    Guest
  • 9 มี.ค.2547,13:45น.
    ขอtab เพลงนี้จริงอ่ะครับ ช่วยผมทีนะครับ สาธุ
  • เด็กขอนเเก่น
    Guest
  • 9 มี.ค.2547,13:54น.
    อืม....เเล้วจะหาให้น้า....สักประเดี๋ยว 
  • Ibanez SoundGearz
    Guest
  • 9 มี.ค.2547,13:57น.
    ถ้าได้ผมจะขอบคุณมากๆเลยครับ 
  • เด็กขอนเเก่น
    Guest
  • 9 มี.ค.2547,14:01น.
    อืม...ถ้างั้นใจเยนๆ..เด้ออ้าย... 
  • tong_washburn
    Guest
  • 11 มี.ค.2547,17:46น.
    intro
    1:-------------------------------------------------------------------------------------------------------------
    2:--2h3p2-------------------------------------------------------------------------------------------------
    3:---------------4------4---6----9-9----9---------h11---9-----------------------11-11-11-------13-
    4:-------------------7----------------------------11-------------11----9----/11-----------------11----

    1:-----------------------------------------------------------------------------------
    2:---------------------9-10-----9-12-10-9-10-9---------9---------9/10---
    3:--11-11---9/11------------------------------------11-------11------------

    solo
    4:---9-10--12--10---9h10p9-------------------9-----------------------------------------------------
    5:------------------------------------12--10--12------10--12--10-------------------110--12--10--
    6:-------------------------------------------------------------------------12---10--12-------------------

    1:--10-9--12--10--9h10p9-------------------9-----------------------------------------------------
    2:-----------------------------------12--10--12-------10--12--10-----------------10--12--10---
    3:--------------------------------------------------------------------------11--9--11--------------------

    1:-----------------------------------------------------------
    2:--9-10-12-10-9--------------9-10--12--14-------
    3:-----------------------11-9-11------------------------

    เป็น version แรกเลย และเป็นเพลงแรกที่แกะได้ อาจจะลืมไปบ้างไม่ได้เล่นนานมาก และไม่มีฟังแล้วครับ มั่วไปนิดนะครับเพราะตอนแกะเพลงนี้ ยังไม่รู้เรื่องอาศัยฟังแล้วเล่นตาม เล่นได้แล้วก็ไม่ได้เล่นอีกเลยนอกจากตอนเมาเลยยิ่งมั่ว ติชมได้นะครับ
  • tong_washburn
    Guest
  • 11 มี.ค.2547,17:51น.
    intro
    1:-------------------------------------------------------------------------------------------------------------
    2:--2h3p2-------------------------------------------------------------------------------------------------
    3:---------------4------4---6----9-9----11--------9-11--9----------------------11-11-11------13-
    4:-------------------7----------------------------11-------------11----9----/11-----------------11----

    1:-----------------------------------------------------------------------------------
    2:---------------------9-10-----9-12-10-9-10-9---------9---------9/10---
    3:--11-11---9/11------------------------------------11-------11------------

    solo
    4:---9-10--12--10---9h10p9-------------------9-----------------------------------------------------
    5:------------------------------------12--10--12------10--12--10-------------------110--12--10--
    6:-------------------------------------------------------------------------12---10--12-------------------

    1:--10-9--12--10--9h10p9-------------------9-----------------------------------------------------
    2:-----------------------------------12--10--12-------10--12--10-----------------10--12--10---
    3:--------------------------------------------------------------------------11--9--11--------------------

    1:-----------------------------------------------------------
    2:--9-10-12-10-9--------------9-10--12--14-------
    3:-----------------------11-9-11------------------------

    เป็น version แรกเลย และเป็นเพลงแรกที่แกะได้ อาจจะลืมไปบ้างไม่ได้เล่นนานมาก และไม่มีฟังแล้วครับ มั่วไปนิดนะครับเพราะตอนแกะเพลงนี้ ยังไม่รู้เรื่องอาศัยฟังแล้วเล่นตาม เล่นได้แล้วก็ไม่ได้เล่นอีกเลยนอกจากตอนเมาเลยยิ่งมั่ว ติชมได้นะครับ
    ((อัพเดทคอร์ดกีต้าร์))
  • IbaneZ
    Guest
  • 12 มี.ค.2547,07:33น.
    ขอบคุณมากนะครับพี่ๆ
  • ่J
    Guest
  • 12 มี.ค.2547,10:53น.
    น่าจะมีค่าตัวโน๊ตบอกด้วยนะ
  • tong_washburn
    Guest
  • 12 มี.ค.2547,14:52น.
    เพลงผีโรงเย็น พูดมากไปหน่อยเลยแกะไม่จบเอาป่าว
  • แม็ก
    Guest
  • 24 มี.ค.2547,11:57น.
    ทำไมมันเงาไปหมดทำไมมองฟ้าแล้วคิดถึงเเฟน  
  • แม็ก
    Guest
  • 24 มี.ค.2547,12:00น.
    i  love you   คำภีร์       
  • Tha
    Guest
  • 17 มิ.ย.2547,14:41น.
    krai yaak dai tab khampee. pm me.. msn .mitihotmail.com 
  • คนโคราชอำเภอชุมพวง
    Guest
  • 8 ก.ค.2547,14:47น.
    อยากทราบว่าคุณ TONG WASHBURN อยู่โคราชหรือเปล่า
  • แดน
    Guest
  • 29 ก.ค.2547,15:51น.

    ขอเพลงผีโรงเย็นหน่อยครับ patpong-dsanook.com ขอบคุณล่วงหน้าครับ
  • ๛หน่วยสวาทพิฆาตเทพ๛
    Guest
  • 3 ส.ค.2547,11:54น.
    คำเตือน : ระวังมัน มองคุณอยู่และมันพร้อมที่จะขยี้คุณด้วยกลงเล็บที่แหลมคมดุจใบมีด
    และมันพร้อมที่จะโฉบคุณทุกเมื่อด้วยปีกอันทรงพลัง ที่ทำให้มันบินเร็วกว่าแสงและเหนือเสียง
    ไม่มีใครหยุดยับยั้งมันได้ ทางรัฐจึงส่งนักล่าหน่วยหนึ่งมาซึ่งมีชื่อว่า ๛หน่วยสวาทพิฆาตเทพ๛
    มากำจัดพวกมัน !
    ((อัพเดทคอร์ดกีต้าร์))
  • justmin
    Guest
  • 18 ก.ย.2547,13:27น.
    อัน 9-----/10--- กับ 9h10p9 มันเล่นจั่งใด๋คะ 
    ((ขอคอร์ดกีต้าร์))
  • net ก่อสร้าง
    Guest
  • 29 ก.ย.2547,13:23น.
    อยากได้เพลงทั้งหมด.......ของพงษ์สิทธิ์    เพราะว่าชอบทุกเพลง.....???????        
  • fanpantae.....พงสิทธ์ จาก...เด็กก่อสร้าง
    Guest
  • 29 ก.ย.2547,13:35น.
    ใครได้คอร์ดเพลง  โปรดส่งมาให้พมดูบ้างนะครับ...........??????????????
    ((อัพเดทคอร์ดกีต้าร์)) ((ขอคอร์ดกีต้าร์))
  • น้องเจียบ
    Guest
  • 4 ม.ค.2548,13:34น.
    อยากได้แทปเพลงทั้งหมดของเพลงนี้จังค่ะ ขอน่ะ น่ะ ชอบ และช่วยส่งมาที่ uthai@dialog.co.th ขอบคุณมากค่ะ
    ((ขอคอร์ดกีต้าร์))

ขอเชิญร่วมแสดงความคิดเห็นครับ

คลิกที่รูป เพื่อแทรกรูปลงในข้อความ
  • Member :
    username
    password
  • Not a member :
    name
    email