Loading

ŧ ֧͹

Է

ѾŴԻŧس ͧ/ µǤسͧ ѹ
ҧ÷ͺкҡͼԴҴ س駷
INTRO

C Am
-0--1-----0-------------------------0h1--0h1h0----------------------------------------------0----------
--------------1--------1------1-----------------------3--1---3---------------1--------1----1------1------
--------0-------0-----------------0-------------------------------2-----2--------2-------------------------
--------------------2--------------------------------------------------2--------------2----------------------
-3-------------------------3---------------------------------------0-----------------------0----------------
-------------------------------------------------------------------------------0------------------------0----3--

C Am

--0--1------0--------------------------0h1--0h1h0--------------------------------0-----3-----0------0--------
------------------1---------1----1------------------------3--1--3----------------1-----1------------1------1--3-
---------0-----------0--------------0---------------------------------2------2--------------------------------------
-------------------------2--------------------------------------------------2------------------------------------------
--3----------------------------3---------------------------------------0--------------------------0-------------------
-----------------------------------------------------------------------------------0--------------------------0-----3-

C
---------------0--0h1h0--------0-----------
------1-----------------------3-------1-------
----------0-------------------------------------
-------------------------------------------------
--3-----------------------------------3-------
---------------3-------------------------------
ǹŴ Truetone
*424218015146584
*424218015146584
*424218015146584
ǹŴ Poly
*424214015146584
*424214015146584
*424214015146584
ǹŴ Mono
*424211015146584
*424211015146584
*424211015146584
* ѵҤҺԡôǹŴ Fullsong, Truetone, Poly, Mono : 35 ҷ/ŧ
ŧ͹
ѹʵ : 24 ..2547,00:13.
ӹǹ : 221941 / ʴԴ : 45
ʵ


ҡ: miti
Guest
ŧй
ŧԵ
͡ʴ੾ :

1

ԭʴԴ繤Ѻ

ԡٻ áٻŧ㹢ͤ
  • Member :
    username
    password
  • Not a member :
    name
    email