Loading

เพลง ทางผ่าน

บิ๊กแอส (Big Ass)

อัพโหลดคลิปเพลงนี้ที่คุณ ร้อง/เล่น ด้วยตัวคุณเอง ได้แล้ววันนี้
ระหว่างการทดสอบระบบหากพบข้อผิดพลาด กรุณาแจ้งที่นี่
Intro :   C / F / 


C
เจ็บที่ต้องพูดมันออกไป
F
ว่าความรักเรามันจบแล้ว
C
ไม่อยากให้เธอ ต้องผิดหวัง
F G
เราควรแยกทางนับจากนี้

Am Em
* สิ่งที่เธอรอคอย สิ่งที่เธอนั้นต้องการ
Am Em
ต่างจากฉัน มันทำให้รักไม่เข้าใจ
F G
โบกมือลา จากฉันไป

C Em F G
** อยากให้เธอได้เจอ หนทางเดินใหม่
C Em F G
อาจเจอใคร ดั่งใจเธอต้องการ
C Em Am
ส่วนตัวฉัน จะขอเป็นทางผ่าน
G F Fm C F
ขอเป็นทางผ่าน ให้เธอก้าวเดินผ่านไป

C
เจ็บที่สองเรายังผูกพัน
F
แต่หมดหนทางที่จะรัก
C
อาจทำให้ใจต้องเจ็บช้ำ
F G
แต่คงไม่นานเธอจะลืม


( ซ้ำ * , ** )

Instru : / Am / Em D / D / ( 2times ) / Bb / G /

( ซ้ำ ** 2 ครั้ง )

Ending : / C /


-------------------------------------------------------------------------------------------------
ส่งเพลงนี้ให้เพื่อน
วันที่โพสต์ : 13 ธ.ค.2546,11:08น.
จำนวนผู้ชม : 293704 คน / แสดงความคิดเห็น : 98 ครั้ง
โพสต์โดย


จาก: [B]{a}[N]{g}[K]
Guest
เพลงแนะนำ
เพลงฮิต
เลือกแสดงเฉพาะ :

  • เด็กมือใหม่
    Guest
  • 1 มิ.ย.2547,17:51น.
    ขอ into  and  solo   หน่อยนะครับ
  • j
    Guest
  • 15 มิ.ย.2547,21:48น.
    ชอบมาก  แต่อยาได้into  and  solo   เหมือนกัน 
  • girl_no_heart
    Guest
  • 17 ก.ค.2547,18:13น.
    Intro: C / F /

    C
    เจ็บที่ต้องพูดมันออกไป
    F
    ว่าความรักเรามันจบแล้ว
    C
    ไม่อยากให้เธอ ต้องผิดหวัง
    F G
    เราควรแยกทางนับจากนี้

    Am Em
    * สิ่งที่เธอรอคอย สิ่งที่เธอนั้นต้องการ
    Am Em
    ต่างจากฉัน มันทำให้รักไม่เข้าใจ
    F G
    โบกมือลา จากฉันไป

    C Em F G
    ** อยากให้เธอได้เจอ หนทางเดินใหม่
    C Em F G
    อาจเจอใคร ดั่งใจเธอต้องการ
    C Em Am
    ส่วนตัวฉัน จะขอเป็นทางผ่าน
    G F Fm C F
    ขอเป็นทางผ่าน ให้เธอก้าวเดินผ่านไป

    C
    เจ็บที่สองเรายังผูกพัน
    F
    แต่หมดหนทางที่จะรัก
    C
    อาจทำให้ใจต้องเจ็บช้ำ
    F G
    แต่คงไม่นานเธอจะลืม

    (ซ้ำ *,**)

    Solo: / Am / Em D / D / (2 times) / Bb / G /

    (ซ้ำ **,**)

    Solo: / C /
  • แม็ก
    Guest
  • 20 ก.ค.2547,10:51น.
    ดีมากๆเลยครับ 
  • วอนบิน
    Guest
  • 22 ก.ค.2547,20:59น.
    SoLo อะ
  • benz
    Guest
  • 7 ส.ค.2547,23:17น.
    อยากได้Introอะคับ
    และSOLOด้วย
  • น้องโบว์ anc.
    Guest
  • 13 ส.ค.2547,11:26น.
    ชอบเพลงนี้มากค่ะ  โดยใจมาก  ..ทางผ่าน....ตรงกับชีวิตดี   ถ้าสนใจคนอกหักติดต่อได้ที่ 062636468 
  • @or
    Guest
  • 16 ส.ค.2547,12:26น.
    เพราะมาก ๆ  ขอบอก :   
  • คนอ่อน
    Guest
  • 28 ส.ค.2547,12:30น.
    ขอtab intro soloหน่อยครับ       
  • ไก่
    Guest
  • 30 ส.ค.2547,23:41น.
    The Guitar Mag  เล่มที่365  หน้าปกแคลช
    มีเพลงนี้ครับ
    ((อัพเดทคอร์ดกีต้าร์))
  • โด่ง
    Guest
  • 18 ก.ย.2547,02:38น.
    เพลงนี้ดีมากๆ 
    ((อัพเดทแหล่งทดลองฟัง))
  • น้ำมูก
    Guest
  • 1 ต.ค.2547,23:08น.
    เก่งโครต 
  • ไอซ์วงBacklight
    Guest
  • 4 ต.ค.2547,00:05น.
    ไก่อยู่โรงเรียนไรอ่ะ
  • ronin 47
    Guest
  • 8 ต.ค.2547,08:51น.
    มียากกว่านี้ไหม 
  • Dokibi
    Guest
  • 5 เม.ย.2548,17:14น.
    ขอแทบเพลงหน่อยจิครับ อยากเล่นมากๆ
    ครายมีช่วยลง หรือช่าวยส่งมาให้หน่อยนะครับ
    ขอบคุณมากๆ
  • แจกัน
    Guest
  • 25 เม.ย.2548,11:05น.
    ขอtab intro กะ Solo หน่อยคับ 
    ((ขอคอร์ดกีต้าร์))
  • มือใหม่หัดเขียนแทป
    Guest
  • 2 พ.ค.2548,23:28น.
    -------------------------------------------3-------------1---0-1---1---------------------------------
    ---------1--0h1-3-1--------1---0h1----3--------------------------------------------------------
    -------0--0----------------0----0-------------------2---2------2-----------------------------------------
    ----------------------------------------------------3-----------------------------------------------
    ----3--------------------3------------------------------------------------------------------------------
    --------------------------------------------------------------------------------------------------
    intro นะ เราแกะเอง
  • zigma
    Guest
  • 7 พ.ค.2548,22:27น.
    -------------------------------------------3-------------1---0-1---1---------------------------------
    ---------1--0h1-3-1--------1---0h1----3--------------------------------------------------------
    -------0--0----------------0----0-------------------2---2------2-----------------------------------------
    ----------------------------------------------------3-----------------------------------------------
    ----3--------------------------------------------------------------------------------------------------
    --------------------------------------------------------------------------------------------------

    ไม่มี3ครับ
  • ......
    Guest
  • 11 พ.ค.2548,19:15น.
    อยากได้โซโล อ่ะอยากได้ๆๆๆ แกะให้หน่อยนะ คับ ชอบมากๆ
  • 1111
    Guest
  • 8 มิ.ย.2548,04:36น.
    อยากได้แท็บอินโท กะโซโล ไครมีช่วยลงไห้หน่อย ขอบคุนอย่างสูง
    ((ขอคอร์ดกีต้าร์))
  • 14 มิ.ย.2548,14:24น.
    โย่ 
  • Tron เทคนิคนครสวรรค์
    Guest
  • 9 ก.ค.2548,23:00น.
    -------------------------------------------3-------------1---0-1---1---------------------------------
    ---------1--0h1-3-1--------1---0h1----3--------------------------------------------------------
    -------0--0----------------0----0-------------------2---2------2-----------------------------------------
    ----------------------------------------------------3-----------------------------------------------
    ----3--------------------------------------------------------------------------------------------------
    --------------------------------------------------------------------------------------------------

    C
    เจ็บที่ต้องพูดมันออกไป
    F
    ว่าความรักเรามันจบแล้ว
    C
    ไม่อยากให้เธอ ต้องผิดหวัง
    F G
    เราควรแยกทางนับจากนี้

    Am Em
    * สิ่งที่เธอรอคอย สิ่งที่เธอนั้นต้องการ
    Am Em
    ต่างจากฉัน มันทำให้รักไม่เข้าใจ
    F G
    โบกมือลา จากฉันไป

    C Em F G
    ** อยากให้เธอได้เจอ หนทางเดินใหม่
    C Em F G
    อาจเจอใคร ดั่งใจเธอต้องการ
    C Em Am
    ส่วนตัวฉัน จะขอเป็นทางผ่าน
    G F Fm C F
    ขอเป็นทางผ่าน ให้เธอก้าวเดินผ่านไป

    C
    เจ็บที่สองเรายังผูกพัน
    F
    แต่หมดหนทางที่จะรัก
    C
    อาจทำให้ใจต้องเจ็บช้ำ
    F G
    แต่คงไม่นานเธอจะลืม


    ( ซ้ำ * , ** )

    Instru : / Am / Em D / D / ( 2times ) / Bb / G /

    ( ซ้ำ ** 2 ครั้ง )

    Ending : / C /



  • ..
    Guest
  • 19 ก.ค.2548,18:20น.
    ...
    ((ขอคอร์ดกีต้าร์))
  • กล้วยสุก
    Guest
  • 17 ต.ค.2548,00:47น.
    เจ๋งโครดๆเลยน้ำใจงามรู้ตัวปะพี่
  • โดม CoNFusE
    Guest
  • 22 ต.ค.2548,19:57น.
    นี้ฟังดูดีๆจิงน้าจะเป็นอย่างนี้น้า
    InTro
    1)---------------------------------------------------3----------------1-----0h1----1--------------
    2)----------1----0h1--3--1-----------1----0h1----1----------1----1--------1----------------
    3)-------0----0---------------------0-----0------------------------------------------------------------
    4)--------------------------------------------------------------3-------------------------3---------
    5)----3--------------------------3---------------------------------------------------------------------

    อันนี้ intro อย่างเดียวน่ะถ้าขึ้นเพลงแล้วมันจะมีต่ออีก เยอะเลย ขี้เกียดเกะแว้ววว
    ตอนขึ้นเพลงก็ตีคอดไปละกัน หุๆ


  • sod
    Guest
  • 31 ต.ค.2548,14:12น.
    123
    ((ขอคอร์ดกีต้าร์))
  • ..
    Guest
  • 20 พ.ย.2548,17:24น.
    เน่า 
  • lทw
    Guest
  • 22 พ.ย.2548,17:31น.
    ขุดหน่อย
  • ....
    Guest
  • 30 พ.ย.2548,19:49น.
    มันตีคอร์ดยังไงวะ
  • เเ
    Guest
  • 9 ธ.ค.2548,06:53น.
    ทำไมก๊อปไม่ได้เลยวะ
    ((ขอคอร์ดกีต้าร์))

ขอเชิญร่วมแสดงความคิดเห็นครับ

คลิกที่รูป เพื่อแทรกรูปลงในข้อความ
  • Member :
    username
    password
  • Not a member :
    name
    email