Loading

เพลง ทิ้งรักลงแม่น้ำ

แคลช ((Clash) Pack4)

อัพโหลดคลิปเพลงนี้ที่คุณ ร้อง/เล่น ด้วยตัวคุณเอง ได้แล้ววันนี้
ระหว่างการทดสอบระบบหากพบข้อผิดพลาด กรุณาแจ้งที่นี่
เพราะรักแล้วช้ำ รักมันทำลาย
ทำลายจิตใจ ให้เราบ้าไป
เพราะรักแล้วเสีย เสียทั้งน้ำตาล
ที่เราไม่เคยเสียให้ใคร
* เก็บความรักทีพ่ายแพ้ เพราะคนๆหนึ่ง
ทิ้งความเจ็บช้ำ ที่เกาะกินในใจ
ทิ้งลงแม่น้ำแล้วลืมทุกอย่าง
นั่งมองดูความรักลอยไป
** ปล่อยให้ไหลไป...ไป ให้ลอยลงสู่ทะเลให้หาย...ไป
ให้มาอย่าย้อนคืนมา
ทิ้ง...ไป เพราะรักนั้นทำกับเราให้เสีย...ใจ
ให้ลอยไปไกล ให้ไปไกลๆ
ไม่มีอะไรต้องเหลือ ทิ้งแล้วทุกอย่าง
รู้แล้วครั้งนี้ รักคือตัวการ
ทำคนเบิกบานให้กลายเป็นเศร้า
ขืนรักแล้วหลง ให้มันมอมเมา
ก็โดนมันแผดเผา เจียนตาย
(ซ้ำ*, **)

(ซ้ำ**)
ดาวน์โหลด Full Song
กด *424243014986584
กด *424243014986584
ดาวน์โหลด Truetone
กด *424218014986584
กด *424218014986584
กด *424218014986584
ดาวน์โหลด Poly
กด *424214014986584
กด *424214014986584
กด *424214014986584
ดาวน์โหลด Mono
กด *424211014986584
กด *424211014986584
กด *424211014986584
* อัตราค่าบริการดาวน์โหลด Fullsong, Truetone, Poly, Mono : 35 บาท/เพลง
ส่งเพลงนี้ให้เพื่อน
วันที่โพสต์ : 15 ธ.ค.2547,19:54น.
จำนวนผู้ชม : 201532 คน / แสดงความคิดเห็น : 82 ครั้ง
โพสต์โดย


จาก: จินค่ะ
Guest
เพลงแนะนำ
เพลงฮิต
เลือกแสดงเฉพาะ :

  • เจน
    Guest
  • 2 ก.ย.2556,19:57น. 49.49.226.55
    เพราะดีนิ่
  • ShinibeE
    Guest
  • 18 ธ.ค.2547,02:43น.
    ช่วยหามาให้หน่อยน่ะ อยากได้มากค่ะ
    ((ขอคอร์ดกีต้าร์))
  • ดนต์ หลกบาตร
    Guest
  • 19 ธ.ค.2547,00:12น.
    pack4ร้องเพราะดีส่งมาเยอะนะ
    ((ขอคอร์ดกีต้าร์))
  • ไก่
    Guest
  • 25 ธ.ค.2547,00:53น.
    1)----------------------------------------5--------7---------8---------------
    2)--1^0------------------------------5--------5---------5---------5-------
    3)---------2^0--------------------5--------5--------5---------5-----------
    4)---------------0^2^0------/7---------------------------------------------
    5)-------------------------0--------------------------------------------------
    6)-----------------------------------------------------------------------------

    1)-------------------------------------------
    2)---6--------6--5^6--5--6-----------------
    3)----------5-----------------------5---------
    4)-------7--------5^7--5--7--7-------------
    5)---5--------------------------------------
    6)----------------------------------------------

    1)-----------------------------------------------
    2)--------------------5^6--5--6-----------------
    3)---------5-----5----------------------5-------
    4)------7-----7------5^7--5--7---7---------
    5)---8-------------------------------------------
    6)-----------------------------------------------

    1)----------4-----5----7---8---10----12(Ham.)---
    2)--------------------0---0---0-----0-------------------
    3)------1------------------------------------------------
    4)---2---------------------------------------------------
    5)--------------------------------------------------------
    6)----------0--------------------------------------------

    ลองเล่นดูคับ
  • เง้อ
    Guest
  • 25 ธ.ค.2547,01:48น.
    ขอsoloด้วยจิ
    ((ขอคอร์ดกีต้าร์))
  • G
    Guest
  • 14 ม.ค.2548,13:53น.
             
  • farklandkafnakdfafjal;aa
    Guest
  • 24 ม.ค.2548,13:22น.
    ช่วยแกะ      tab   solo         ด้วย
  • ต้น
    Guest
  • 26 ม.ค.2548,17:50น.
    แตว่ามานเล่นยากอ่ะครับ       โทษทีพยายามแกะนานแล้วยังไม่ได้เลยครับยังไงก็บอกหน่อยนะครับจะรอ
  • ต้น
    Guest
  • 26 ม.ค.2548,17:51น.
    แตว่ามานเล่นยากอ่ะครับ       โทษทีพยายามแกะนานแล้วยังไม่ได้เลยครับยังไงก็บอกหน่อยนะครับจะรอ
  • tos
    Guest
  • 11 ก.พ.2548,12:38น.
    ขอคอร์ดกีตาร์หน่อยครับ 
    ((ขอคอร์ดกีต้าร์))
  • จากตัวตลกตัวหนึ่ง
    Guest
  • 15 ก.พ.2548,20:33น.
    เพลงนี้ขอมอบให้กับ อภิญา อ่วมสุข (ปุ้ม) โรงเรียนศรีศักดิ์สุวรรณวิทยา
    จากคนโง่...!! คนหนึ่ง
  • เด็กหลัง
    Guest
  • 18 ก.พ.2548,11:36น.
          
    ((ขอคอร์ดกีต้าร์))
  • Mai-Devil
    Guest
  • 18 ก.พ.2548,14:40น.
     
  • เอก เทคนิคเชียงราย (เด็กแมคคาฯ)
    Guest
  • 28 ก.พ.2548,11:43น.
     ทิ้งรักลงแม่น้ำ 
    Artist : PACK4 (CLASH)
    Intro.Am/D/F/E
    Am D
    เพราะรักแล้วช้ำ รักมันทำลาย
    F E
    ทำลายจิตใจ ให้เรามันบ้า
    Am D
    เพราะรักแล้วเสีย เสียทั้งน้ำตาล
    F E
    ที่เราไม่เคยเสียให้ใคร
    Dm Am
    * เก็บความรักทีพ่ายแพ้ เพราะคนๆหนึ่ง
    Dm A
    ทิ้งความเจ็บช้ำ ที่เกาะกินในใจ
    Dm Am
    ทิ้งลงแม่น้ำแล้วลืมทุกอย่าง
    F E
    นั่งมองดูความรักลอยไป
    C Cmaj7 Am Em C
    ** ปล่อยให้ไหลไป...ไป ให้ลอยลงสู่ทะเลให้หาย...ไป
    F G
    ให้มาอย่าย้อนคืนมา
    C Em Am Em C
    ทิ้ง...ไป เพราะรักนั้นทำกับเราให้เสีย...ใจ
    F Em
    ให้ลอยไปไกล ให้ไปไกลๆ
    E Am
    ไม่มีอะไรต้องเหลือ ทิ้งแล้วทุกอย่าง

    Am D
    รู้แล้วครั้งนี้ รักคือตัวการ
    F E
    ทำคนเบิกบานให้กลายเป็นเศร้า
    Am D
    ขืนรักแล้วหลง ให้มันมอมเมา
    F E
    ก็โดนมันแผดเผา เจียนตาย

    (ซ้ำ*, **)


    (ซ้ำ**)

    คอร์ดอาจจะไม่ตรงครับ (พอดีลืมครับ) แกะในสเกล Am นั่นแหล่ะ

    ขอบคุณครับ
  • หน่า นะ
    Guest
  • 4 มี.ค.2548,11:06น.
    ผิดป่าวหง่ะ 
  • เสือซ่อนมังกรหมอก
    Guest
  • 8 มี.ค.2548,16:23น.
    Am	           D	
    เพราะรักแล้วช้ำ รักมันทำลาย
    F E7
    ทำลายจิตใจ ให้เราเป็นบ้า
    Am D
    เพราะรักแล้วเสีย เสียทั้งน้ำตา
    F E
    ที่เราไม่เคยเสียให้ใคร
    Dm7 Am
    * เก็บความรักที่พ่ายแพ้ เพราะคนๆหนึ่ง
    Dm7 A7
    ทิ้งความเจ็บช้ำที่เกาะกินในใจ
    Dm7 Am
    ทิ้งลงแม่น้ำแล้วลืมทุกอย่าง
    Dm7 E7
    นั่งมองดูความรักลอยไป
    C Bdim7
    ** ปล่อยให้ไหลไป
    Am7 G C G
    ให้ลอยลงสู่ทะเล ให้หายไป
    Fmaj7 G
    ให้มันอย่าคืนย้อนมา
    C Bdim7 Am7 G C G
    ทิ้งไป เพราะรักนั้นทำกับเราให้เสียใจ
    Fmaj7 Dm
    ให้ลอยไปไกล ให้ไปไกลๆ
    E Bdim7 Am Am/E7/Am
    ไม่มีอะไรต้องเหลือ ทิ้งแล้วทุกอย่าง
    Am D
    รู้แล้วครั้งนี้ รักคือตัวการ
    F E7
    ทำคนเบิกบานให้กลายเป็นเศร้า
    Am D
    ขืนรักแล้วหลง ให้มันมอมเมา
    F E E7
    ก็โดนมันแผดเผาเจียนตาย
  • xXx
    Guest
  • 22 มี.ค.2548,16:25น.
    1)----------------------------------------5--------7---------8---------------
    2)--1^0------------------------------5--------5---------5---------5-------
    3)---------2^0--------------------5--------5--------5---------5-----------
    4)---------------0^2^0------/7---------------------------------------------
    5)-------------------------0--------------------------------------------------
    6)-----------------------------------------------------------------------------

    แบบนี้มานดูยังไงอ่ะคับ สอนที
    ((ขอคอร์ดกีต้าร์))
  • clash
    Guest
  • 3 เม.ย.2548,22:10น.
    อยากได้ solo อ่ะ
  • เด็กอุบลมือสมัครเล่น
    Guest
  • 4 เม.ย.2548,09:49น.
    อยากได้ Solo เพลงนี้มากเลยคร๊าบบบบบบบ   เพราะม๊ากกกกกกก
    ( จาเอาไปเล่นให้แฟนฟัง ) ToT กรุณาด้วยนะครับบบบบบบ
  • 000
    Guest
  • 18 เม.ย.2548,22:24น.
    เกายังไงคับช่วยบอกที
  • ...
    Guest
  • 23 เม.ย.2548,20:22น.
    เยี่ยมมาก   
  • ...
    Guest
  • 23 เม.ย.2548,20:51น.
    Solo

    1)---8---7------------------------------------5----------------------------------------
    2)---8-----10-------/8---6----5---------------8---7---5---------------------------
    3)--------------10---/9---7----5---------------------------8---7---5---4----------
    4)-------------------------------------5H7------------------------------------7P57\

    .
    1)------------------------------------8---10/12---10---8---10---10/12----9
    2)--------------------------------8------------------------------------------------10
    3)---------------------9---10--------------------------------------------------------
    4)-----------------7-------------------------------------------------------------------
    5)---/5---7H8----------------------------------------------------------------------


    1)---9---10---/12--12---/13---13--------------------------------------------------------------
    2)--10------------------------------------10---10---10---12---/13---13---\8---8---\5---5
    3)-----------------------------------------------------/10------------------------------------------


    2)--5--6--/8--8--/10--10--10--12/13--12--10--/12--10H12P10---\9
    3)-------------------------------10---------------------------------------------------
    4)--5--7--/9--9--/10--10---------------------------------------------------------

    2)--9H10P9----9----------------------------------------------------
    3)--------------11---11--9H11P9-------9-------------------------
    4)----------------------------------------12----12--10H12P10--9

    เจ๋งชัวว์
  • ..................
    Guest
  • 29 เม.ย.2548,08:44น.
    เจ๋งจังsolo ขอเกาดัวยนะ          
  • 8 ก.ค.2548,16:38น.
    โย่วๆๆๆแจ่ม
  • วิศวะ
    Guest
  • 16 ส.ค.2548,15:38น.
    กูเบื่อ กูเช็ง กูหล่อ   วิศวะ  
    ((ขอคอร์ดกีต้าร์))
  • Animation
    Guest
  • 10 ก.ย.2548,21:42น.
    ขอแนะนำว่า คอร์ด E เปลี่ยนเป็น E7 ครับ เวลาเกา เสียงเหมือนกว่า
    ((ขอคอร์ดกีต้าร์))
  • HeroHunter
    Guest
  • 9 ต.ค.2548,21:13น.
    ฟังได้เว็บ ไหน  บอก ด้วย ครับ    เพ่ๆๆๆๆๆๆ
  • ลองเล่นดูนะ
    Guest
  • 24 ต.ค.2548,11:20น.
    55555+

ขอเชิญร่วมแสดงความคิดเห็นครับ

คลิกที่รูป เพื่อแทรกรูปลงในข้อความ
  • Member :
    username
    password
  • Not a member :
    name
    email