Loading

เพลง ทุกลมหายใจ

พงษ์สิทธิ์ คำภีร์

อัพโหลดคลิปเพลงนี้ที่คุณ ร้อง/เล่น ด้วยตัวคุณเอง ได้แล้ววันนี้
ระหว่างการทดสอบระบบหากพบข้อผิดพลาด กรุณาแจ้งที่นี่
                                              เพลงทุกลมหายใจ

Intro:C Em Am G C Em F G C

C Em Am G
เก็บกระเป๋าเสื้อผ้าคว้าปืนคู่กาย ก้าวเท้าลงบันไดด้วยใจอาวร
C Em Am G
กอดเมียรักเอาไว้แนบใจพี่จะลา อย่าร้องไห้เลยหนาจงฝืนทำใจ
C Em Am G
จากภาคเหนืออีสานเดินทางลงใต้ เกียรติตำรวจของไทยป้องผืนแผ่นดิน
C Em Am G
เสี่ยงความกลัวความเหงาสู้ความคิดถึง ทุกๆวันคำนึง ถึงบ้านของเรา
C Em Am G C C7
ทำอะไรอยู่หนอลูกพ่อเมียขวัญ คึดถึงเจ้าทุกวันฝันทุกค่ำคืน...ถึงเธอ
F C Am G
*ปืนดังปังเสียงดังปวดแสบเจ็บแปลบที่ท้องเจียนตาย
F C Am G
กัดฟันสู้แต่มันรอบทำร้าย ใครก็ได้มันฆ่าเ+++่ยนแล้วลงรู
C Em Am G
**ท่องคาถาเอาไว้ว่าไม่อาจตาย ทุกๆลมหายใจมีไว้รอเธอ
C Em Am G C
หลั่งเลือดทาแผ่นดินภาคภูมิเสมอ ฉันจะเคียงข้างเธอ........บนแผ่นดินของเรา
Solo:C Em Am G C Em Am G G C C7

(ซ้ำ *)
F C Am G F C Am G
ปืนยังดังเสียงบอมดังแผดไว้แลปเลียทั่วด้ามควาน รวมกันสู้ดับไฟร้ายให้ด้ามขวานกลับมางามร่มเย็นตลอดไป
(ซ้ำ**)
ส่งเพลงนี้ให้เพื่อน
วันที่โพสต์ : 23 ธ.ค.2548,21:03น. 61.91.122.50
จำนวนผู้ชม : 226480 คน / แสดงความคิดเห็น : 51 ครั้ง
โพสต์โดย


จาก: ชาติ
เข้าร่วม: 9 ปีก่อน
เพลง: 0
โพสต์: 5
เพลงแนะนำ
เพลงฮิต
เลือกแสดงเฉพาะ :

  • 24 ธ.ค.2548,11:27น.
    หาฟังได้จากไหนอ่าคับ
  • ชาติ
    Guest
  • 24 ธ.ค.2548,14:40น.
    หาฟังได้ที่ www.kampee.com 
    ((ขอคอร์ดกีต้าร์))
  • เอก
    Guest
  • 26 ธ.ค.2548,14:57น.
    ไม่เห็นมีโน๊ตเลย
  • ชาติ
    Guest
  • 27 ธ.ค.2548,21:06น.
    เจ้าของเวปคงเปลียนแล้วมั้งครับ
  • เจน
    Guest
  • 27 ธ.ค.2548,21:07น.
    ชอบมาก
  • บํม
    Guest
  • 19 เม.ย.2549,18:56น.
    ดีค่ะ  จากตากค่ะ ยากให้วงไอติมมาเล่นที่ จังหวัดตากจังค่ะ     
    ((ขอคอร์ดกีต้าร์))
  • แฟนเพลง 20 ปี
    Guest
  • 7 ก.ค.2549,19:53น.
    ไฟเราะสุด
  • จรัญ ใจบาน
    Guest
  • 25 ต.ค.2549,16:23น.
    เก่งมาก  สุดยอย  อยากเก่งเร็วๆๆๆๆมักจัง 
  • OK_KISS
    Guest
  • 30 ต.ค.2549,20:42น.
    ซึ้งมาก ๆ ฟังแล้วน้ำตาไหล คิดถึงคนที่รัก
  • คน สกลนคร
    Guest
  • 12 ก.พ.2550,13:42น.
    นิวครับ ส.ด.ว. สกลนคร เด้อ ฟังเพลงคำภีร์เพลงนี้ผมเห็นใจทหารที่ต้องไปประจำที่สามจังหวัดภาคใต้ ผมเป็นกำลังใจให้ครับ
  • 555
    Guest
  • 29 มี.ค.2550,11:04น.
    อยากได้โน้ตเพลงนี้คับใครมีบ้าง
  • jackman
    Guest
  • 10 เม.ย.2550,09:42น.
    มาเเล้วเเท็ป Intro+solo โดยเด็กไม่ไม่ได้เป็นสมาชิกเพราะสมัครไม่ได้ -*-

    Intro ทุกลมหายใจ

    C
    1>--------------------------------------------------]
    2>---------------------------------1--0-----------]
    3>---0----------0--------0---------------0-------]
    4>---2-----2--------2------------------------0---]
    5>---3---------------------------------------------]
    6>--------------------------------------------------]

    Em Am
    1>-------------------------------------+----------------------------------------]
    2>-------------------------------------+----------------------------------------]
    3>---0------------------0-------------+----------------------------------------]
    4>---2---2--------2--------2---0-----+---0h2----0-------------------------]
    5>---2--------2-----------------2------+------------------2----0-------------]
    6>---------------------------------------+---------------------------------------]

    C
    1>--------------------------------------------------]
    2>---------------------------------1--0-----------]
    3>---0----------0--------0---------------0-------]
    4>---2-----2--------2------------------------0---]
    5>---3---------------------------------------------]
    6>--------------------------------------------------]

    Em Am
    1>-------------------------------------+----------------------------------------]
    2>-------------------------------------+----------------------------------------]
    3>---0------------------0-------------+----------------------------------------]
    4>---2---2--------2--------2---0----+---0h2----0-------------------------]
    5>---2--------2-----------------2-----+------------------2----0-------------]
    6>--------------------------------------+------------------------------2-------]


    ******************************************************************************************

    Solo เล่นเหมือน Intro เเต่บางจังหวะใช้มือกรีดสายด้วย

    ******************************************************************************************

    หมายเหตุ อาจจะผิดจากของจริง เเต่เหมือนครับขอบอก

    เพราะ ผมเเกะจากหูล้วนๆไม่ได้ลดสปีดเพลงด้วย

    ฝากตัวด้วยน้าผมเพิ่ง 14 ปีเอง ขอให้สนุกกับการเล่นกีต้าร์นะครับ
  • jackman
    Guest
  • 10 เม.ย.2550,10:03น.
    พี่ๆ เพื่อนๆ น้องๆ-*- เอาไปเลย ผมเเกะมาเพิ่ม ตัว picking ครับ 

    C
    1>-------------------------------0<<บางทีจะมีเล่นสายนี้เเต่ส่วนมากไม่มี--
    2>----------------------------------------------
    3>----------0----------------------------------
    4>------2--------------2-----------------------
    5>---3------------3----------------------------
    6>---------------------------------------------

    Em
    1>----------------------------------------------
    2>----------------------------------------------
    3>------------0----------------------------------
    4>-------2--------------2------------------------
    5>---2-------------2-----------------------------
    6>---------------------------------------------

    Am << อันนี้เล่นตามท่อนธรรมดา
    1>----------------------------------------------
    2>----------------------------------------------
    3>-----------2-----------------------------------
    4>------2----------------2-----------------------
    5>--0--------------0-----------------------------
    6>---------------------------------------------

    Am << พอถึงบรรดทัดที่ร้องว่า "ปังดังปังเสียงดัง.. เมื่อถึงคอร์ด Am ให้เล่นตามนี้
    1>----------------------------------------------
    2>----------------1--0h1----------------------------
    3>-----------2----------------2-------------------
    4>------2--------------------------2-------------
    5>--0-------------------------------------------
    6>---------------------------------------------

    G
    1>----------------------------------------------
    2>----------------------------------------------
    3>----------------0------------------------------
    4>-----------0--------0--------------------------
    5>------2------------------2---------------------
    6>--3--------------------------3-----------------

    F
    1>----------------------------------------------
    2>----------------------------------------------
    3>-------------1-----------------1----------------
    4>--------1----------------1---------------------
    5>---1----------------1--------------------------
    6>---------------------------------------------

    ******************************************************************************************

    วิธีเล่น สำหรับคนไม่รู้ นี่เป็นตัวเกาคอร์ดครับเล่นตามนี้ถ้าเล่นเพลงถึงคอร์ดไหน
    ก็เกาตามนั้น


    หมายเหตุ ติชมได้นะครับ

  • jackman
    Guest
  • 10 เม.ย.2550,10:10น.
    โทษทีๆๆๆๆๆๆๆๆๆๆๆๆๆๆๆ        พิมผิดตัวนึง



    Intro ทุกลมหายใจ

    C
    1>--------------------------------------------------]
    2>---------------------------------1--0-----------]
    3>---0----------0--------0---------------0-------]
    4>---2-----2--------2------------------------2<<<<<เปลี่ยนเป็นตามนี้---]
    5>---3---------------------------------------------]
    6>--------------------------------------------------]

    Em Am
    1>-------------------------------------+----------------------------------------]
    2>-------------------------------------+----------------------------------------]
    3>---0------------------0-------------+----------------------------------------]
    4>---2---2--------2--------2---0-----+---0h2----0-------------------------]
    5>---2--------2-----------------2------+------------------2----0-------------]
    6>---------------------------------------+---------------------------------------]

    C
    1>--------------------------------------------------]
    2>---------------------------------1--0-----------]
    3>---0----------0--------0---------------0-------]
    4>---2-----2--------2------------------------2<<<<เปลี่ยนจาก 0 เป็น 2---]
    5>---3---------------------------------------------]
    6>--------------------------------------------------]

    Em Am
    1>-------------------------------------+----------------------------------------]
    2>-------------------------------------+----------------------------------------]
    3>---0------------------0-------------+----------------------------------------]
    4>---2---2--------2--------2---0----+---0h2----0-------------------------]
    5>---2--------2-----------------2-----+------------------2----0-------------]
    6>--------------------------------------+------------------------------2-------]

  • เด็กฝิ่น
    Guest
  • 30 ก.ย.2550,00:03น.
    ช่วยอธิบายวิธีดูตัวเลขนิดๆพอเข้าใจทีนะคับขอร้อง
  • jackman
    Guest
  • 21 ม.ค.2551,17:08น.
    ฮะโหล ยังอยู่ไหมครับถ้าตอบจะอธิบายให้
1

ขอเชิญร่วมแสดงความคิดเห็นครับ

คลิกที่รูป เพื่อแทรกรูปลงในข้อความ
  • Member :
    username
    password
  • Not a member :
    name
    email