Loading

เพลง นายเจ็บ ฉันเจ็บ

แดน บีม ดีทูบี (D2B)

อัพโหลดคลิปเพลงนี้ที่คุณ ร้อง/เล่น ด้วยตัวคุณเอง ได้แล้ววันนี้
ระหว่างการทดสอบระบบหากพบข้อผิดพลาด กรุณาแจ้งที่นี่
อยู่แห่งไหน นายจะมีฉันผูกพัน จะไม่ลืมกัน 
จะไม่ลืม ไม่เลือน หากเดือนจะจาง
จะไม่มีทางให้นายได้ไกลห่าง
เราจะร่วมเดินทาง ไปสู่ฝันด้วยกันตลอดไป

* หากว่านายเจ็บ ฉันก็เจ็บ
เพื่อนเจ็บ ฉันก็เจ็บเหมือนกัน
เพื่อนต้องอยู่ด้วยกัน จะทิ้งกันได้ไง
หากวันไหนสนุก ฉันยังสุข
เพื่อนเจ็บ ฉันก็เจ็บเหมือนกัน

นายจะมีฉันอยู่ อยู่ข้างกัน นายจะมีฉันอยู่
อยู่ด้วยกัน นายจะมีฉัน เราจะมีกัน
ไม่ว่าเวลาจะผ่านไปนานแค่ไหน
ไม่ว่าทุกข์จะสุข จะอยู่ช่วยกันฟันฝ่า
จะเจอช่วงเวลา ที่ไม่ค่อยดีเท่าไหร่
กอดคอกันไว้ จะไม่มีใครทิ้งใคร
ส่งเพลงนี้ให้เพื่อน
วันที่โพสต์ : 13 ส.ค.2546,20:02น.
จำนวนผู้ชม : 49283 คน / แสดงความคิดเห็น : 28 ครั้ง
โพสต์โดย


จาก: Maiza
Guest
เพลงแนะนำ
เพลงฮิต
เลือกแสดงเฉพาะ :

  • unknow
    Guest
  • 18 ส.ค.2546,10:12น.
    นายเจ็บ ฉันเจ็บ 
    
    Artist : แดน & บีม

    Intro : D / E A E D
    D / E A C#m D D A A
    A / E

    A / E F#m E D
    อยู่แห่งไหน นายจะมีฉัน. . .ผูกพัน
    D/E F#m E D
    จะไม่ลืมกัน. . . . . . Oh. . .
    Bm Esus4/E A G#m F#m
    จะไม่ลืมไม่เลือน หากเดือนจะจาง จะไม่มีทางให้นายได้ไกลห่าง
    Bm Esus4 E
    เราจะร่วมเดินทาง. . . . .ไปสู่ฝันด้วยกันตลอดไป

    D / E A C#m F#m E
    * หากว่านายเจ็บ ฉันก็เจ็บ เพื่อนเจ็บ ฉันก็เจ็บ. . .เหมือนกัน
    D Bm Esus4/E
    เพื่อนต้องอยู่ด้วยกัน. . . จะทิ้งกันได้ไง . .
    Esus4 A C#m F#m E D C#m Esus4
    หากวันไหนสนุก ฉันยังสุข Oh. . . . .. . .
    E A A / E
    เพื่อนเจ็บ ฉันก็เจ็บ. . .เหมือนกัน

    F#m E
    นายจะมีฉันอยู่. . .อยู่ข้างกัน นายจะมีฉันอยู่ . . . .
    D E A
    อยู่ด้วยกัน นายจะมีฉัน เราจะมีกัน ไม่ว่าเวลาจะผ่านไปนานแค่ไหน
    D E C#m F#m
    ไม่ว่าทุกข์จะสุข จะอยู่ช่วยกันฟันฝ่า จะเจอช่วงเวลา ที่ไม่ค่อยดีเท่าไหร่
    D Esus4/E
    กอดคอกันไว้. . . .จะไม่มีใครทิ้งใคร

    ( ซ้ำ * )

    Solo : D / E A E D
    D / E A C#m D D A A

    ( ซ้ำ * )


    ((อัพเดทคอร์ดกีต้าร์))
  • adioze
    Guest
  • 16 ธ.ค.2546,16:34น.
    *นายเจ็บฉันเจ็บ*

    C G EM AM C ( G / AM )
    อยู่แห่งไหน นายจะมีฉันผูกพัน จะไม่ลืมกัน โหโห
    DM G
    จะไม่ลืม ไม่เลือน หากเดือนจะจาง
    EM AM
    จะไม่มีทางให้นายได้ไกลห่าง
    DM G
    เราจะร่วมเดินทาง ไปสู่ฝันด้วยกันตลอดไป
    C
    * หากว่านายเจ็บ ฉันก็เจ็บ
    G AM
    เพื่อนเจ็บ ฉันก็เจ็บเหมือนกัน
    DM G
    เพื่อนต้องอยู่ด้วยกัน จะทิ้งกันได้ไง
    C G / AM DM / G
    หากวันไหนสนุก ฉันยังสุข โว.โวโว้ ฮือ.ฮือ..หือ..หื่อ.หือหือหือ
    C
    เพื่อนเจ็บ ฉันก็เจ็บเหมือนกัน
    AM EM
    นายจะมีฉันอยู่ อยู่ข้างกัน นายจะมีฉันอยู่
    DM G
    อยู่ด้วยกัน นายจะมีฉัน เราจะมีกัน
    C
    ไม่ว่าเวลาจะผ่านไปนานแค่ไหน
    DM G
    ไม่ว่าทุกข์จะสุข จะอยู่ช่วยกันฟันฝ่า
    EM AM
    จะเจอช่วงเวลา ที่ไม่ค่อยดีเท่าไหร่
    DM G
    กอดคอกันไว้ จะไม่มีใครทิ้งใคร

    (*)

    (*)
  • tae
    Guest
  • 17 ธ.ค.2546,15:26น.
    ขอ tab or วิธีการก็ได้ครับ ขอบคุณมากคับ
    ((ขอคอร์ดกีต้าร์))
  • kp
    Guest
  • 27 ธ.ค.2546,22:12น.
    อยากได้ tab ครับ ช่วยลงหน่อยครับ ขอบคุณครับ
  • unknow
    Guest
  • 31 ม.ค.2547,21:27น.
             D  E A          E              D
    1|----2----------------------0----2------2
    2|--------0--2----2--0-------0------------3
    3|----2---------2--------1-----------2
    4|--------2--2--------0----------0

    D E A
    1|----2-----------> ? ผมแกะได้แค่นี้
    2|--------0--2---> ? ช่วยแกะต่อให้ด้วยนะครับ
    3|----2-----------> ?
    4|--------2--2---> ? ถ้าผิดพลาดอย่างไรช่วยแนะนำด้วยนะครับ
    ((อัพเดทคอร์ดกีต้าร์))
  • unknow
    Guest
  • 2 ก.พ.2547,22:06น.
    ลืมบอกไปว่าข้างบนคือ Intro นะครับ  
  • ปอย
    Guest
  • 3 ก.พ.2547,22:40น.
    ขอtapแบบเต็มเพลงหน่อยครับ
    ((ขอคอร์ดกีต้าร์))
  • unknow
    Guest
  • 4 ก.พ.2547,04:06น.
    ผมแกะมาไม่ใช่แบบนั้นอ่ะครับ เป็นคอร์ดใน (พูดยาก แต่ D E A ประมาณนั้นแหละ)
    ((อัพเดทคอร์ดกีต้าร์))
  • 12
    Guest
  • 17 มี.ค.2547,20:12น.
    งั้นลงให้ดูหน่อยสิคะ
    ((ขอคอร์ดกีต้าร์))
  • unknow
    Guest
  • 18 มี.ค.2547,16:52น.
    ครับเพลงนี้น่าจะเล่นคอร์ดในครับ
    ผมเห็นแดนเล่นคอร์ดใน ถ้าใครแกะไว้ก็ช่วยเอามาลงให้หน่อยนะ
    ส่วน Tab ที่ผมลงไว้ข้างบน ใครเล่นแล้วไม่เหมือนก็อย่าว่ากันนะครับ
    กีต้าร์ผมเสียงท่าทางจะแปลกกว่าชาวบ้าน เพราะเล่น Tab นั้นแล้วมันเหมือนเปี๊ยบเลย
    แต่พอลองเขียน Tab ดังกล่าวใน PowerTAb1.7 ปรากฏว่ามันเพี้ยนเอามากๆเลย
    ((อัพเดทคอร์ดกีต้าร์))
  • tong_washburn
    Guest
  • 18 มี.ค.2547,17:12น.
    เดี๋ยวลองแกะดูนะครับ
  • kloy
    Guest
  • 18 มี.ค.2547,21:10น.
    แกะแล้วอย่าลืมเอามาลงฝากพวกเราด้วยน่ะค่ะTabอ่ะอยากได้มั่กมากค่ะ  จราขอบจัยเทอมากๆๆเลย
  • Ship
    Guest
  • 4 เม.ย.2547,19:44น.
    ท่อก่อนร้องนะครับ

    ถ้าผิดยังไงติชมด้วยนะครับ

    5---7---9-------------9---------7-------------7---------5------------5-------5
    7---9--10-------10------10---9---------9-------9----7--------7------7---7
    7---9---9----9------------------9----9------------------7----7---------------7
    7---9-----------------------------9-----------------------7---------------------7
    -------------------------------------------------------------------------------------
    ------------------------------------------------------------------------------------


    5---7---9-------------9---------12-------------12---------10------------------10------------10
    7---9--10-------10------10--------------10-------10------------------10-----------10--------
    7---9---9----9-------------------------9-----------------------------9-----------------------------
    7---9-------------------------------------------------------------------------------------------------
    --------------------------------------------------------------------------------------------------------
    --------------------------------------------------------------------------------------------------------

    ---------10------------9-------------------9----------------9
    ---10---------10-------------------10-----------10-------10
    9------------------------------9-----------------------------9
    ------------------------------------------------------------------
    ------------------------------------------------------------------
    ------------------------------------------------------------------
  • Ship
    Guest
  • 4 เม.ย.2547,19:44น.
    ท่อก่อนร้องนะครับ

    ถ้าผิดยังไงติชมด้วยนะครับ

    5---7---9-------------9---------7-------------7---------5------------5-------5
    7---9--10-------10------10---9---------9-------9----7--------7------7---7
    7---9---9----9------------------9----9------------------7----7---------------7
    7---9-----------------------------9-----------------------7---------------------7
    -------------------------------------------------------------------------------------
    ------------------------------------------------------------------------------------


    5---7---9-------------9---------12-------------12---------10------------------10------------10
    7---9--10-------10------10--------------10-------10------------------10-----------10--------
    7---9---9----9-------------------------9-----------------------------9-----------------------------
    7---9-------------------------------------------------------------------------------------------------
    --------------------------------------------------------------------------------------------------------
    --------------------------------------------------------------------------------------------------------

    ---------10------------9-------------------9----------------9
    ---10---------10-------------------10-----------10-------10
    9------------------------------9-----------------------------9
    ------------------------------------------------------------------
    ------------------------------------------------------------------
    ------------------------------------------------------------------
  • Ship
    Guest
  • 4 เม.ย.2547,19:44น.
    ท่อก่อนร้องนะครับ

    ถ้าผิดยังไงติชมด้วยนะครับ

    5---7---9-------------9---------7-------------7---------5------------5-------5
    7---9--10-------10------10---9---------9-------9----7--------7------7---7
    7---9---9----9------------------9----9------------------7----7---------------7
    7---9-----------------------------9-----------------------7---------------------7
    -------------------------------------------------------------------------------------
    ------------------------------------------------------------------------------------


    5---7---9-------------9---------12-------------12---------10------------------10------------10
    7---9--10-------10------10--------------10-------10------------------10-----------10--------
    7---9---9----9-------------------------9-----------------------------9-----------------------------
    7---9-------------------------------------------------------------------------------------------------
    --------------------------------------------------------------------------------------------------------
    --------------------------------------------------------------------------------------------------------

    ---------10------------9-------------------9----------------9
    ---10---------10-------------------10-----------10-------10
    9------------------------------9-----------------------------9
    ------------------------------------------------------------------
    ------------------------------------------------------------------
    ------------------------------------------------------------------
  • Ship
    Guest
  • 4 เม.ย.2547,19:45น.
    ทำไมโพสขึ้นหลายอันหว่า 
  • Spocking
    Guest
  • 5 เม.ย.2547,01:11น.
    โห  สุดยอดคับ ใกล้เคียงมากเลยคับ.......เจ๋งมาคับ  หูคุณนี่เก่งจัง  ผมฟังตั้งนานกว่าจะจับจังหวะได้อ่ะ
  • Ship
    Guest
  • 5 เม.ย.2547,23:09น.
    ขอบคุณครับ 
  • Ship
    Guest
  • 6 เม.ย.2547,10:39น.
    ท่อนกลางก็เปลี่ยนจากตัวสุดท้าย 
    9 12
    10 เป็น 14
    9 14
    -- 14
    -- --
    -- ---
  • เด็กขี้อาย
    Guest
  • 20 เม.ย.2547,12:29น.
    ดีๆๆๆๆๆๆๆๆๆ 
    ((อัพเดทคอร์ดกีต้าร์))
  • แดน
    Guest
  • 23 เม.ย.2547,17:14น.
    มั่ว เค้าเล่นแบบจับขอดนะ
  • มิ้น สุพรรณ ปฐมา สมบูรณ์ดี
    Guest
  • 4 พ.ค.2547,12:04น.
    มิ้นสุพรรณ  ยังไงก็คนบ้านเดียวกับพี่แดนก็อยากฟังเพลงของพี่แดน  เพราะพี่แดนน่ารักและร้องเพลงเพาะดีคะขอให้ดีทูบีกลับ   และขอให้พี่บิ๊กหายไวๆนะคะ

    รัก แดน ดีทูบี

    from mint patama somboondee
  • DAVE
    Guest
  • 7 พ.ค.2547,21:28น.
    งงเยยไม่เข้าใจครับท่อนกลางท่อนไหน
    ช่วย
    Ship (202.183.167.*) [ วันอังคาร ที่ 6 เมษายน 2547 เวลา 10:39 น. ] [ x ] ผู้ตอบคนที่ 26
    ท่อนกลางก็เปลี่ยนจากตัวสุดท้าย
    9 12
    10 เป็น 14
    9 14
    -- 14
    -- --
    -- ---


  • แป้ง
    Guest
  • 13 ก.ค.2547,11:36น.
    เป็นเพลงที่น้าฟังมาก เพลงอยากให้มีเพลงแบบนี้เยอะนะ           
  • JaY
    Guest
  • 4 ส.ค.2547,14:48น.
    อยากได้แท็บท่อนร้องน่ะคับ ช่วยลงให้หน่อย
  • ^^ได้แล้ว
    Guest
  • 26 ส.ค.2547,18:33น.
    ขอบคุณค่ะ
  • akeji
    Guest
  • 31 ส.ค.2547,15:09น.
    ตรง D ที่ 2  และก๊อ 2  ในแนวเดียวกัน มันเล่นไงคับ และก็5777 7999  ดีดยังไงคับ ช่วยหน่อยคับผมเล่นไม่เก่ง  
  • ...
    Guest
  • 6 มี.ค.2548,20:50น.
    อยากได้ tabท่อนร้องอ่าคับ
    ----
    ((ขอคอร์ดกีต้าร์))
  • ไม่รู้เหมือนกัน
    Guest
  • 11 เม.ย.2548,15:16น.
    ดีคับ  

ขอเชิญร่วมแสดงความคิดเห็นครับ

คลิกที่รูป เพื่อแทรกรูปลงในข้อความ
  • Member :
    username
    password
  • Not a member :
    name
    email