Loading

เพลง น้ำตาแม่

เคียส

อัพโหลดคลิปเพลงนี้ที่คุณ ร้อง/เล่น ด้วยตัวคุณเอง ได้แล้ววันนี้
ระหว่างการทดสอบระบบหากพบข้อผิดพลาด กรุณาแจ้งที่นี่
ชื่อเพลง/Title : น้ำตาแม่
อัลบัม/Album :
ศิลปิน/Artist : เคียส

เนื้อร้อง

หยาดเหงื่อท่วมตัว ท่วมหัว โทรมกาย
เหงื่อที่รินไหล คือแรงงาน ที่ทน ทำกิน
ส่งเจ้าเล่าเรียน ให้พากเพียร ให้ทุกๆสิ่ง
ถึงตัวจะกิน ไม่ค่อยอิ่ม ก็ขอให้ลูก สบาย

ทนหาบของขาย เหงื่อท่วมกายไม่เคยจะท้อ
ถึงแดดจะเผา จะร้อนเพียงใด ไม่เคยจะล้า
เก็บเงินค่าเทอม ส่งเจ้าเรียนให้มีการศึกษา
ค่าน้ำประปา รวมทั้งค่าไฟ ใกล้มาสิ้นเดือน

ช่างโชคร้ายลูกชาย ทำตัวแหลกเหลว
คบเพื่อนเลว มั่วสุม เสพของมึนเมา
สูบกัญชา ดมทั้งกาว ทั้งกินเหล้า
ทุรนทุราย ใจแทบขาด อีกทั้งลงแดง

ช่างโชคร้าย ลูกชาย ทำตัวแหลกเหลว
คบเพื่อนเลว มั่วสุม เสพของมึนเมา
สูบกัญชา ดมทั้งกาว ทั้งกินเหล้า
ทุรนทุราย ใจแทบขาด อีกทั้งลงแดง

หมดความหวัง หมดพลังที่จะขวนขวาย
กอดลูกชาย น้ำตาไหลโรยแรงอ่อนล้า
แทบสิ้นตัว สิ้นกำลังหมดความแข็งแกร่ง
แม่สิ้นแรง เมื่อเจ้าสิ้นลม ล้มไปต่อหน้า

เจ้าจากไปแล้วใครเล่าใคร จะอยู่กับแม่
ดั่งฝนหล่นพรำ น้ำตาแม่ไหล...แทบ เป็น สาย เลือด
ส่งเพลงนี้ให้เพื่อน
วันที่โพสต์ : 4 ก.พ.2547,21:56น.
จำนวนผู้ชม : 122679 คน / แสดงความคิดเห็น : 55 ครั้ง
โพสต์โดย


จาก: เหน่ง
Guest
เพลงแนะนำ
เพลงฮิต
เลือกแสดงเฉพาะ :

  • pansak
    Guest
  • 5 ก.พ.2547,03:14น.
     i want cord guitar , thank you 
  • pansak
    Guest
  • 5 ก.พ.2547,03:16น.
    can you give me a cord guitar please. thank 
  • 007
    Guest
  • 8 ก.พ.2547,23:01น.
    ดีๆๆๆๆๆๆๆๆๆๆๆๆๆๆๆๆๆๆๆๆๆๆๆๆมาก
    ((ขอคอร์ดกีต้าร์))
  • ้ัีวันทองสองจัย
    Guest
  • 23 ก.พ.2547,13:29น.
    ขอคอร์ดเพลงด้วยครับ  ขอบคุณครับ

  • หยี่ น้อย
    Guest
  • 26 ก.พ.2547,15:32น.
    เพลง นี้ มี 3-4 คอร์ด  G D Em C D G G7
    เล่นวนไปมาแล้วฟังเสียงเอาจะได้เก่ง แกะเองเป็นกะเขาบ้าง
    ((อัพเดทคอร์ดกีต้าร์))
  • ปาย ลพบุรีครับ
    Guest
  • 28 เม.ย.2547,02:36น.
    แม่ผมชอบมากเลยช่วยส่งมาให้ผมเร็วๆหน่อยได้ไหมครับ
    ((ขอคอร์ดกีต้าร์))
  • คนน่ารัก
    Guest
  • 24 ม.ค.2548,11:02น.
    อยากทราบว่า เพลงนี้แต่งโดยใครค่ะ
  • OFF หลังวัด
    Guest
  • 19 ก.พ.2548,08:08น.
    ผมรู้ทุกอย่างกับเพลงนี้  อยากได้ไรบอกเลยที่  panuwat2500@hotmail.com 
  • คนใหม่หัดเล่น
    Guest
  • 24 มิ.ย.2548,13:56น.
    ขอแท็ปโซโล่และอินทูทั้งเพลง ช่วยหน่อยครับ
    ((ขอคอร์ดกีต้าร์))
  • เด็กอีสาน(ชอบเพลงใต้)
    Guest
  • 28 ก.ย.2548,23:10น.
    ขอคอร์ดเพลง รักแท้แพ้พี่เดชหน่อยครับ( วงเด็กพัทลุง)หายากจริงๆครับ 
    ((ขอคอร์ดกีต้าร์))
  • พีช
    Guest
  • 29 ก.ย.2548,10:07น.
    ดีมากเลยครับ  
    ((ขอคอร์ดกีต้าร์))
  • เมย์
    Guest
  • 12 พ.ย.2548,14:45น.
    เพลงนี้เปงเพลงที่เพราะมากๆซึ้งมากๆเปงเพลงที่มีความหมายดีอยากฟังมากๆ          
  • jtttyyyu
    Guest
  • 10 ธ.ค.2548,19:26น.
          
  • This is a book
    Guest
  • 11 ม.ค.2549,15:32น.
    ร้อง!!
  • ตั้ม
    Guest
  • 17 ก.พ.2549,16:59น.
    INTRO   ครับ     วันหลังเดี๋ยวแกะโซโล่ให้ครับ    ตั้ม    ชาวนา แบนด์


    1------------------------------------------------------------101010--12-10------------------10--------
    2--------------8----10-12--7/9/7--------8----------------------------------10-12--12------12-13
    3-----777-9------------------------------7----7---9-------------------------------------------------------

    1---1212--10--12--10----------------7-8-7-----------------------
    2----------------------------10-12-10----------10--8/10/8--------
    3-------------------------------------------------------------------------
  • ตั้ม ชาวนาแบนด์
    Guest
  • 17 ก.พ.2549,17:01น.
    ตั้ม 125.24.92.100 [ วันศุกร์ ที่ 17 กุมภาพันธ์ 2549 เวลา 16:59 น. ] [ x ] ผู้ตอบคนที่ 9 
    INTRO ครับ วันหลังเดี๋ยวแกะโซโล่ให้ครับ ตั้ม ชาวนา แบนด์


    1------------------------------------------------------------101010--12-10------------------10--------
    2--------------8----10-12--7/9/7--------8----------------------------------10-12--12------12-13
    3-----777-9------------------------------7----7---9-------------------------------------------------------

    1---1212--10--12--10----------------7-8-7-----------------------
    2----------------------------10-12-10----------10--8/10/8--------
    3-------------------------------------------------------------------------

  • ตั้ม ชาวนาแบนด์
    Guest
  • 17 ก.พ.2549,17:07น.
    ตั้ม 125.24.92.100 [ วันศุกร์ ที่ 17 กุมภาพันธ์ 2549 เวลา 16:59 น. ] [ x ] ผู้ตอบคนที่ 9 
    INTRO ครับ วันหลังเดี๋ยวแกะโซโล่ให้ครับ ตั้ม ชาวนา แบนด์

    แก้ไขนิดนึง

    key G
    1------------------------------------------------------------101010--12-10------------------10--------
    2--------------8----10-12--7/9/7--------8----------------------------------10-12--12------12-13
    3-----777-9------------------------------7----7---9-------------------------------------------------------

    1---1212--10--12--10----------------7-8-7-----------------------
    2----------------------------13-12-10----------10--8/10/8--------
    3-------------------------------------------------------------------------

  • 26 ก.พ.2549,13:25น.
    ช่วยลง tab โซโล่ หน่อยค้าบบบบบ
  • กุไม่รู้ ยังงี้อ่ะป่าว
    Guest
  • 8 เม.ย.2549,19:50น.
    1------------------------------------------------------------101010--12-10------------------10--------
    2--------------8----10-12--7/9/7--------8----------------------------------10-12--12------12-13
    3-----777-9------------------------------7----7---9-------------------------------------------------------

    1---1212--10--12--10------------------------------------------------------
    2----------------------------13-15-12----------10--12--13--12-10----12/8
    3--------------------------------------------------------------------------------
  • กุไม่รู้ ยังงี้อ่ะป่าว
    Guest
  • 8 เม.ย.2549,19:51น.
    1------------------------------------------------------------101010--12-10------------------10--------
    2--------------8----10-12--8/10/8--------8----------------------------------10-12--12------12-13
    3-----777-9------------------------------7----7---9-------------------------------------------------------

    1---1212--10--12--10------------------------------------------------------
    2----------------------------13-15-12----------10--12--13--12-10----12/8
    3--------------------------------------------------------------------------------

    ชัวๆๆ
  • คนโข่ทัยคับ มีอะไรก็เมล์วมาถามได้คับ
    Guest
  • 18 มิ.ย.2549,21:15น.
                 C       D                      G                    C     D                  G 
    ช่างโชคร้ายลูกชายทำตัวแหลกเหลว คบเพื่อนเลวมั่วสุมเสพของมึนเมา
    C D G/Em Am D G
    ดื่มกัญชาดมทั้งกาวและกินเหล้า ทุรนทุรายใจจะขาดอีกทั้งลงแดง
  • เอ็ม
    Guest
  • 27 ก.ค.2549,18:12น.
    ฟังได้ป่ะ
  • มะพีดิ
    Guest
  • 7 ส.ค.2549,13:16น.
    ขอบคุณมากนะคะ ถ้าไม่ได้เนื้อเพลงนี่แย่แน่ๆคะ 
  • คนรักเดียวใจเดียว
    Guest
  • 10 ส.ค.2549,18:38น.
    เพาะมากๆๆๆๆๆๆๆๆๆๆๆๆ   
    ((ขอคอร์ดกีต้าร์))
  • คนรักเดียวใจเดียว
    Guest
  • 10 ส.ค.2549,18:38น.
    เพาะมากๆๆๆๆๆๆๆๆๆๆๆๆ   
    ((ขอคอร์ดกีต้าร์))
  • คนรักเดียวใจเดียว
    Guest
  • 10 ส.ค.2549,18:38น.
    เพาะมากๆๆๆๆๆๆๆๆๆๆๆๆ   
    ((ขอคอร์ดกีต้าร์))
  • ท้ค้คั้
    Guest
  • 28 พ.ย.2549,20:04น.
              

  • Guest
  • 28 พ.ย.2549,20:05น.
            
  • เพื่อนเพลง
    Guest
  • 14 ธ.ค.2549,09:37น.
    ชอบมากค่ะ  หาเพลงเพราะๆๆๆๆๆเก่าๆๆแบบนี้อีกนะ

ขอเชิญร่วมแสดงความคิดเห็นครับ

คลิกที่รูป เพื่อแทรกรูปลงในข้อความ
  • Member :
    username
    password
  • Not a member :
    name
    email