Loading

เพลง ผีโรงเย็น

พงษ์สิทธิ์ คำภีร์

อัพโหลดคลิปเพลงนี้ที่คุณ ร้อง/เล่น ด้วยตัวคุณเอง ได้แล้ววันนี้
ระหว่างการทดสอบระบบหากพบข้อผิดพลาด กรุณาแจ้งที่นี่
Print

Intro: C Em Am F G C
C/Em/Am C/Em/Am
อยู่โรงบาลนั้นแสนยากเข็ญ ไม่มีใครเห็นใจพวกเรา
F G C/G/C
อยู่อย่างคนที่ไร้ญาติขาดมิตร เราเลยไม่คิดจะรักใคร
C/Em/Am C/Em/Am
ด้วยไม่มีใครเข้าใจเรา ชอบมองเราในแง่ไม่ดี
F G C/G/C7
ชอบเหยียดหยามพวกเรายิ่งนัก เศร้าใจสิ้นดี
F G
หลงรักสาวซักคน(หลงรักสาวสักคน)
C Em Am
เขาไม่สนใจเรา(เขาไม่สนใจเรา)
Dm G
ชีวิตจำต้องเศร้า เพราะเราเป็นผีโรง
C/G/C
เย็น Solo:C Em Am C Em Am F G C G C7
(ซ้ำ*)
G C G C G C
(ผีโรงเย็น)ผีโรงเย็น(ผีโรงเย็น)ผีโรงเย็น(ผีโรงเย็น)ผีโรง..เย็น
http://www.musicatm.com/thai/คอร์ดเพลง-ผีโรงเย็น-พงษ์สิทธิ์-คำภีร์-2293.html
ดาวน์โหลด Truetone
กด *424218044256584
กด *424218044256584
กด *424218044256584
ดาวน์โหลด Poly
กด *424214044256584
กด *424214044256584
กด *424214044256584
ดาวน์โหลด Mono
กด *424211044256584
กด *424211044256584
กด *424211044256584
* อัตราค่าบริการดาวน์โหลด Fullsong, Truetone, Poly, Mono : 35 บาท/เพลง
ส่งเพลงนี้ให้เพื่อน
วันที่โพสต์ : 18 มิ.ย.2547,09:30น.
จำนวนผู้ชม : 569367 คน / แสดงความคิดเห็น : 94 ครั้ง
โพสต์โดย


จาก: กีต้าร์ปลิว
Guest
เพลงแนะนำ
เพลงฮิต
เลือกแสดงเฉพาะ :

  • 4 ส.ค.2556,16:02น. 118.175.78.162
    เพลง ผีโรงเย็น
    Intro: C Em Am F G C
    C/Em/Am C/Em/Am
    อยู่โรงบาลนั้นแสนยากเข็ญ ไม่มีใครเห็นใจพวกเรา
    F G C/G/C
    อยู่อย่างคนที่ไร้ญาติขาดมิตร เราเลยไม่คิดจะรักใคร
    C/Em/Am C/Em/Am
    ด้วยไม่มีใครเข้าใจเรา ชอบมองเราในแง่ไม่ดี
    F G C/G/C7
    ชอบเหยียดหยามพวกเรายิ่งนัก เศร้าใจสิ้นดี
    F G
    หลงรักสาวซักคน(หลงรักสาวสักคน)
    C Em Am
    เขาไม่สนใจเรา(เขาไม่สนใจเรา)
    Dm G
    ชีวิตจำต้องเศร้า เพราะเราเป็นผีโรง
    C/G/C
    เย็น Solo:C Em Am C Em Am F G C G C7
    (ซ้ำ*)
    G C G C G C
    (ผีโรงเย็น)ผีโรงเย็น(ผีโรงเย็น)ผีโรงเย็น(ผีโรงเย็น)ผีโรง..เย็น
  • kob
    Guest
  • 20 ม.ค.2557,00:30น. 124.121.66.184
    มีโน๊ตขลุ่ยไหมคร๊
  • โตโต้
    Guest
  • 22 ก.พ.2557,23:44น. 49.230.157.130
    มีบ้างไหมtab
  • กีต้าร์ปลิว
    Guest
  • 18 มิ.ย.2547,10:13น.
    intro
    C Em Am
    1--------------------0-------------------------------------------------------------------
    2----------------------1------------------0----------1----------------------------------
    3------------------------0-----------0--------------------------------------------------
    4-----0-2-3-2-0-2--------------2--------------------------0---2--3--2--0--------
    5--3-----------------------2------------------0---------3--------------------------
    6-----------------------------------------------------------------------

    C Em Am
    1--------0-----------------------------------------------------------------------
    2------------1------------------------0-------------1-----------------------------
    3---------------0----------------0----------------------------------------------
    4---------------------------2------------------------------------0-2-3-2-0-------
    5--3------------------2--------------------0--------------3------------------
    6--------------------------------------------------------------------
    F G C
    1----------------1----------------------------------------------------0-------0-------
    2---------1---------1-----1-------------------------------------1-------3------3----1
    3-----2------2----------2--------------0-0---0-0h-2-0-----------0-------0----------
    4-3----------------------------------0------2------------------------------------------
    5--------------------------------------------------------------3----------------------3
    6--------------------------------3-----------------------------------------------------
    ((อัพเดทคอร์ดกีต้าร์))
  • เขา
    Guest
  • 18 มิ.ย.2547,13:10น.
    ชอบ คับ
  • เคยเล่นแล้ว
    Guest
  • 28 มิ.ย.2547,11:20น.
    เพลงนี้เคยเล่นแล้วนะ รู้สึกจะเป็นคีย์ D มากกว่านะ  คือแบบว่าหนังสือเพลงก็คีย์ ดี อ่ะนะ แต่ว่า เล่นคีย์ ซี ก็คงจะง่ายกว่า............. 
  • ตะวันคนจร
    Guest
  • 1 ก.ค.2547,17:12น.
    ตะวันคนจร-จริงๆแล้วเพลงนี้ก็คย์ D นั่นแหละครับ ...ถ้าหากจะเล่นคีย์ C ต้องทาบ Capo ช่อง2 ครับ
  • กีต้าร์ปลิว
    Guest
  • 2 ก.ค.2547,21:17น.
    ถ้าเป็นหนังสือเพลงทั่วไปคีย์D แต่พี่ปูเค้าเล่นคีย์Cครับผม
  • นครทม
    Guest
  • 12 ก.ค.2547,11:58น.
       
  • นครทม
    Guest
  • 12 ก.ค.2547,11:58น.
       
  • j
    Guest
  • 15 ก.ค.2547,12:21น.
    ดีคับ
  • miti
    Guest
  • 15 ก.ค.2547,21:32น.
    ผมคนหนองคาย นะครับ บ้านเดียวกันกับพี่ปู ให้ไว้ความรู้ประดับชีวิตนะครับ


    C Em Am
    ----------------------------l-------0----------------------------------------------------------------------
    ----------------------------I-----------1-----------------0---------1-------------------------------------
    ----------------------------l%------------0---------0------------------------------------------------%-
    -------0--2--3---2-0----l%--------------------2-------------------------0----2---3---2----0---%-
    ---3-----------------------l--3---------------2--------------0-------3----------------------------------
    ----------------------------l-------------------------------------------------------------------------------

    F G C C
    ------------------1-------------------------------------------------------------0-------------0---------------
    ---------1-----------1------1----------------------------------------1--------------3------------3------1--
    ------2-----2-----------2--------------0--0-------0-0h2-0------------0------------0-------------------- หยุดวิ1
    ---3---------------------------------0-----------2------------------------------------------------------------
    --------------------------------------------------------------------3---------------------------------------3--
    ----------------------------------3----------------------------------------------------------------------------

    C Em Am C Em
    อยู่โรงบาลนั้นแสนอยากเข็ญ ไม่มีใครเห็นใจพวกเรา
    เรา ชอบมองเราในแง่ไม่ดี
    ---------------------------------------------0------------0--------------0-----------0-------------0------------0-----
    -------------------------------------------------1-----------0----1----------1----------1-------------1------------0-
    -----------------------------------%----0------------0-------------2-----------2--------------0-----------0---------
    -----------------------------------%------------------------------------------------------------------------------------
    ---------------------------------------3------------2-----------0-----------------------------3----------2------------
    --------------------------------------------------------------------------------------------------------------------------

    อยู่อย่างคนที่ไร้ญาติขาด มิตร เราเลยไม่คิดจะรัก ใคร ด้วยไม่มีใครเข้าใจ
    ชอบเหยียดหยามพวกเรายิ่ง นัก เศร้าใจสิ้น ดี

    Am F G C G C
    ---------0---------0----------------------1--------------------3-------3--------------0---------3l----------0----------0--
    --1--------1-----------1-------1----1------1----1-----0--------0------0------1---------0-----l----1--------1---------1
    ------2--------2-------------------2------------2----------0--------0--------------2---------0--l--------0---------0-----%
    -------------------------------3---------------------------------------------------------------------l-------------------------%
    0--------------------------------------------------------------------------------3------------------l-3----------------------
    --------------------------------------------------------3-----------------------------------3-------l--------------------------

    หลงรักสาวสักคน (หลงรักสาวสักคน) เขาไม่สนใจเรา (ไม่สนใจเรา)

    lC7 F G C Em
    l----0---------0 ------------------------------1-------------------------3-----------3-----------0------------0-------
    l--------1---------1------1--%----1------------1-----1--------0--------0-----------0-----------1------------0----
    l-----------3----------3------%-------2------------2---------------0---------0-------------0-----------0-----------
    l------------------------------%--3-------3-----------------------------------------------------------------------------
    l--3-----------------------------------------------------------------------------------------3------------2--------------
    ----------------------------------------------------------------3---------------------------------------------------------

    ชีวิตจำต้องเศร้า เพราะเราเป็นผีโรงเย็น

    Am Dm G (X) C
    ----------0--------0----------1--0-1--------------------3----------3-----------------0------------3---------------
    ---1---------1-------1----------------3----3-----0----------0-----------0------1----------0----------------------
    -------2--------2----------2-------------2-----------0----------0------------------2----------0--------------------
    --------------------------0----------------------------------------------------------------------------------------------solo
    -0-------------------------------------------------------------------------------3--------------------------3---หยุด-
    -------------------------------------------------3-------------------------------------------3-------------------------
    C Em Am C Em Am
    SOLO
    -------0--------------0------------0----------------0--------------------------0--------------0---------------0----------0-
    -1--------1--------------1-------------0-----1--------1-----1h3---1------------1-------------0-----1--------3-----1--
    -----0--------------0----------0-----------------2-------2------------------0-------------0----------------2-------2------
    ---------------------------------------------------------------------------------------------------------------------------------
    ------------------3----------2-------------0------------------------------3-----------2--------------0----------------------
    ---------------------------------------------------------------------------------------------------------------------------------

    หลงรักสาวสัก
    F G C G C7
    ----------1-------1--------3---------3---------------------0-----------3------0----------0------------
    ----1-------1------1----------0---------0----0-----1-----------0----------------1----------1------1-
    -------2-------2-----------------0----------0-----------2-----------0-----------------3---------3-----%กลับไปเล่น
    --3--------------------------------------------------------------------------------------------------------%ตรง%นะ
    ----------------------------------------------------3--------------------------3--------------------------
    ------------------------3-----------------------------------------3---------------------------------------

    (X)
    เย็น( ผีโรงเย็น) ผีโรงเย็น( ผีโรงเย็น) รัก มิ ติ ( ผีโรงเย็น) รัก มิ ติ

    C G C G C G C ช้าๆ C
    --------------0-------------3---------------0------------3----------------0-----------3------------0-------0-
    -------1------------0--------------1-------------0----------------1------------0----------------------1----1-
    ----------2------------0----------------2-----------0-----------------2------------0----------0------------0-ดีดลง
    ----------------------------------------------------------------------------------------------------------------2-พร้อมกัน
    --3----------------------------3-------------------------------3----------------------------3----------------3-ช้าๆ
    ----------------3------------------------------3------------------------------3-------------------------------0-


    เฮ้อ ขอให้มีความสุข เล่นที่ใดนึกถึงมิติ บ้างนะ



    ((อัพเดทคอร์ดกีต้าร์))
  • miti
    Guest
  • 15 ก.ค.2547,23:13น.
    CaPo ช่อง2
  • คนอยากรู้
    Guest
  • 16 ก.ค.2547,11:39น.

    C Em Am
    ----------------------------l-------0----------------------------------------------------------------------
    ----------------------------I-----------1-----------------0---------1-------------------------------------
    ----------------------------l%------------0---------0------------------------------------------------%-
    -------0--2--3---2-0----l%--------------------2-------------------------0----2---3---2----0---%-
    ---3-----------------------l--3---------------2--------------0-------3----------------------------------
    ----------------------------l-------------------------------------------------------------------------------


    -------0--2--3---2-0---- 0---2--3---2----0 0 เล่นยังไง ดีดสายเปล่าเหรอ
    ---3-----------------------
  • กีต้าร์ปลิว
    Guest
  • 18 ก.ค.2547,19:05น.
    ขยันจริงๆครับ พอดีผมมันขี้เกียจครับเลยไม่ได้ทำทั้งเพลง ขอบคุณมากครับคุณมิติ
  • miti
    Guest
  • 20 ก.ค.2547,03:09น.
    ว่างครับเพิ่งเลิกกับแฟนนะครับ  ไม่เป็นไรครับ ผมชอบเขียนแท็ป ยามเขียนเพลงเองอยู่แล้วครับ
    เพลงนี้เป็นเพลงแรกที่ผมหัดเล่นกีตาร์นานแล้วละ ว่างๆไปเที่ยวหนองคายนะครับ
  • มิติ
    Guest
  • 20 ก.ค.2547,03:12น.
    0ถูกต้องแล้วครับ สายเปิดหรือสายเล่านั่นละ   
  • clash
    Guest
  • 9 ม.ค.2548,11:52น.
    introนะครับ
    สาย1--0----------0--------------------------------------------|
    สาย2-----3--2------3--2--3--2---2h3/2--2h3/2--------|
    สาย3-----------2-----------------2---------------------4--2--|
    ต่อไปก้อSolo
    สาย2--9-10/10/10-----9-10/10/10--9-10/10/10----12-10-9---9-10/10/10--12-10-9
    สาย3--------------------9--------------------------------------9-------------9-----------------9---------9
    ---------9---10-9-12-10-14-12-15-14-----10-10-12-12-10-10----10-10-12-12-10-10
    -----------9-------------------------------------9----------------------------9---------------------------
    สาย2------10-10-12-12-10-10--9--10--12--10----|
    สาย3----9--------------------------------------------------|
    สุดท้ายก้อOuttro
    สาย1--10h8--12h6---5-6------------------------------------------------------------------|
    สาย2-------------------6-----8----6--8--ดา-ด๊าดา-โวล...---4h8--4h11--9-8-9-8-6----|
    สาย3-----------------------------7-------------------------------------------------------------|

  • dee
    Guest
  • 14 เม.ย.2548,15:07น.
    ช่วยสอนวิธีอ่านโนต โซโล ด้วยครับ อ่านไม่เป็น
  • พีช
    Guest
  • 8 มิ.ย.2548,17:27น.
    ชอบนะเพลงเพราะดี ผมเด็ก มน. พิษณุโลกนะครับ
  • ดุ๊กกะดิ๊ก
    Guest
  • 28 ก.ค.2548,12:09น.
    ชอบดี หรือม่ายชอบดี ไม่ชอบหรอก เอาป็นว่าชอบดีกว่า เหอะๆ งงหว่ะ
  • pom
    Guest
  • 6 ก.ย.2548,14:19น.
    ชอบดี หรือม่ายชอบดี ไม่ชอบหรอก เอาป็นว่าชอบดีกว่า เหอะๆ งงหว่ะงงมั้ยละยังงี้นะ

  • ทีมข้าวหลามหนัง
    Guest
  • 12 ก.ย.2548,11:26น.
    5555+กุบ้า   
  • 12
    Guest
  • 30 ต.ค.2548,13:00น.
    สาด 
  • คนหัดเล่นกีต้าร์ ไม่มีคนสอน แต่ใจรัก
    Guest
  • 25 ธ.ค.2548,10:30น.
    ขอวิธิการอ่านแทป และวิธิการเล่นกีต้าร์อย่างละเอียดด้วยตับเพราะผมเพิ่งหัดเล่น ต้องขอขอบคุณไว้นะที่นี้ด้วยคับ  
  • กอล์ฟ ป.6/2
    Guest
  • 30 ธ.ค.2548,18:20น.
    คนหัด่สว่อ    
    ((ขอคอร์ดกีต้าร์))
  • ~Iด๋วต่อยปากIIตก~
    Guest
  • 11 ม.ค.2549,18:17น.
    เเมร่ง งง คับ !! 
  • เด็กน่านอยากเก่งครับ
    Guest
  • 4 ก.พ.2549,20:35น.
    อยากได้ท่อนพูดด้วยครับถ้าไม่รบกวนนักก็ช่ยวหน่อยนะครับกรุณาด้วยเถอะครับ   
  • มื่อใหม่
    Guest
  • 11 เม.ย.2549,16:20น.
    การเกากีต้าร์เพลงนี้เกาแบบไหนครับผม
    มือใหมครับ
  • กีตาร์
    Guest
  • 14 มิ.ย.2549,09:58น.
    ---------0--------------------------------------------------
    --------------1----------------------------------------------
    ---------------------3--------------------------------------

ขอเชิญร่วมแสดงความคิดเห็นครับ

คลิกที่รูป เพื่อแทรกรูปลงในข้อความ
  • Member :
    username
    password
  • Not a member :
    name
    email