Loading

เพลง ผู้ชายในฝัน

เรสท์แอเรีย (rest area)

อัพโหลดคลิปเพลงนี้ที่คุณ ร้อง/เล่น ด้วยตัวคุณเอง ได้แล้ววันนี้
ระหว่างการทดสอบระบบหากพบข้อผิดพลาด กรุณาแจ้งที่นี่
	Dmaj7		   F#7
จะสุขจะทุกข์ นานซักเพียงไหน ขอให้เธออดทนไว้
Bm A D
ก็ฉันไม่มีอะไรที่ดีเลิศเลอ เมื่ออยู่กับฉันให้เธอรู้ไว้
F#7 Bm G Gm
ขอให้เธอมั่นใจไว้ ว่าฉันจะเคียงข้างเธอ


D G D
มาจนถึงในวันนี้ ที่เธอนั้นมั่นใจว่าต้องการไปกับฉัน
G D Em A
ไม่ใช่เพ้อไม่ได้ฝัน ที่ตัวฉันนั้นมันไม่เป็นเหมือนใคร
G F#m
จะรับได้ไหม ที่ฉันไม่มีอะไรมาให้
Em A D
มีเพียงหัวใจที่จะให้เธอเท่านั้น
G F#m Bm
จะรับได้ไหม ที่ฉันจะเป็นอย่างฉันต้องการ
Em A
ไม่อยากเปลี่ยนแปลงให้เป็นเหมือนใคร


Dmaj7 F#7
จะอยู่ตรงนี้หรือเธอจะไปกับใครเขา
G A D
จะอยู่ตรงนี้ที่เดิมที่เก่าที่มีฉัน
F#m Bm
จะอยู่ตรงนี้ก็คงไม่เจอผู้ชายในฝัน
Em A D
แต่จะมีแค่ฉันและความรักที่จริงใจ


Dmaj7
ขอบฝั่งขอบฟ้า ดาวที่เรียงร้อย
F#7
หรือพระจันทร์ที่เคลื่อนคล้อย
Bm A
หรือแม้ตะวันที่คอยเมฆลอยมาบดบัง
D F#7
จะหล่มจะรุมนามสักเพียงใด ไกลจะไกลซักแค่ไหน
Bm G
แต่ฉันมีเธอไม่ได้

ส่งเพลงนี้ให้เพื่อน
วันที่โพสต์ : 4 มี.ค.2549,13:15น. 203.156.78.20
จำนวนผู้ชม : 20017 คน / แสดงความคิดเห็น : 6 ครั้ง
โพสต์โดย


จาก: เอ็ม
เข้าร่วม: 8 ปีก่อน
เพลง: 0
โพสต์: 1
เพลงแนะนำ
เพลงฮิต
เลือกแสดงเฉพาะ :

  • 4 มี.ค.2549,13:17น.
    คือตรง "จะหล่มจะรุมนามสักเพียงใด "
    ผมฟังไม่ออกอะครับ ว่าเค้าร้องว่าอะไร
    ใครช่วยเข้ามาแก้ทีครับ ^^
  • บีเตยงาม
    Guest
  • 4 มี.ค.2549,17:33น.
    เพลง จุดหมาย ของ Tobizaru
    ผมลงไว้ในเพลงของมันแต่ผมกลัวว่าจะไม่มีใครเห็นคับ
    Solo: ผมเล่นตามเพลงคับ คือตามจิงเล่นในคีย์E ผมเล่น D#(Eb)

    1)---------------------------------------------------------------------------------------------------------
    2)------------------------------------------------------------11-----------------------------------------
    3)----8---8-7-8-10---12-12^-12-10-8-10--8-10^----10^-10-8-10-8---------------------
    4)--8---8------------------------------------------------------------------------------------------------
    5)--------------------------------------------------------------------------------------------------------
    6)--------------------------------------------------------------------------------------------------------

    ท่อนนี้เล่นนิดหน่อยนะคับ
    1)--------------------------------------------------------------------15---------15-16-18-----------
    2)-16^-16-15-16---------15-16----15-16-18-15-16-18-----16-18------------------------
    3)--------------------15-17---------17----------------------------------------------------------------
    4)--------------------------------------------------------------------------------------------------------
    5)--------------------------------------------------------------------------------------------------------
    6)--------------------------------------------------------------------------------------------------------

    ไม่ยากเท่าไหรหรอกคับลองไปเล่นตามเพลงดู
  • 8 มี.ค.2549,19:36น.
    เนื้อร้องเท่มาก
  • alcohol
    Guest
  • 14 มี.ค.2549,19:01น.
    จะลมจะรุ้งงามสักเพียง ไหน 

    ป่ะมั้งนะ .................
  • คุงกิ๊บ
    Guest
  • 15 มี.ค.2549,15:52น.
    จะลมจะรุ้ง งามสักเพียงใด ไกลจะไกลสักแค่ไหน 

    จ้า

    เพลงเพราะจังเน้อะ
    ช้อบชอบบบบบบบ
  • fangbuffalo
    Guest
  • 4 ม.ค.2551,17:22น.
    เอ่อช่วยแกะตอนโซโล่ให้ทีได้ป่าวฮะ คือว่าอยากเล่นมากเลยฮะแต่เล่นไม่จบซะที ((ขอคอร์ดกีต้าร์))
1

ขอเชิญร่วมแสดงความคิดเห็นครับ

คลิกที่รูป เพื่อแทรกรูปลงในข้อความ
  • Member :
    username
    password
  • Not a member :
    name
    email