Loading

เพลง ฝนตกที่หน้าต่าง

โลโซ

อัพโหลดคลิปเพลงนี้ที่คุณ ร้อง/เล่น ด้วยตัวคุณเอง ได้แล้ววันนี้
ระหว่างการทดสอบระบบหากพบข้อผิดพลาด กรุณาแจ้งที่นี่
Intro: F#/Ebm/G#m/C# (2times)

F# Ebm/G#m/C#
วันนี้ฝนตก ไหลลงที่หน้าต่าง
F# Ebm G#m C#
เธอคิดถึงฉันบ้าง ไหมหนอเธอ
F# Ebm G#m C# B C#
เมื่อวันจันทร์ที่แล้ว สองเรายังได้เจอ เธอ ส่งยิ้มมา

F# Ebm/G#m C#
นั่งอยู่คนเดียว เหลียวมองที่หน้าต่าง
F# Ebm G#m C#
หากมีเธอข้าง ๆ ก็คงจะสุขใจ
F# Ebm G#m C#
เธอคงไม่รู้ ว่าฉันเองยังไม่มีใคร
B C# F#
หากเป็นเธอ ก็คงเข้าที

B Bbm G#m C# F#
* เธออาจจะมีใคร คนนั้นที่แสนดี ส่วนฉันคนนี้ ก็คงจะเศร้าใจ
B Bbm Ebm G#m B C#
เธออาจจะมีแฟนแล้ว ก็เป็นได้ ก็ยังสงสัย ยังอยากจะรู้

F# Ebm G#m F# Ebm G#m C#
** หวังแค่เพียงเธอ มีใจให้ซักหน่อย เฝ้าแต่รอคอย เพียงเธอบอกรักมา
F# Ebm G#m C# B C# F#/Ebm/G#m/C#
สุขใจยิ่งนัก ที่ฉันได้เพียง แค่มองตากับเธอ ก็สุขสุดหัวใจ


Solo: F#/Ebm/G#m/C# (3times)
B/C#/F#

[ ซ้ำ * , ** ]

G#m C# F#/Ebm/G#m/C#
อือ ... ก็สุขสุดหัวใจ โอ๊ะ...เย...
F#/Ebm/G#m/C#/F#/Ebm/G#m/C#
จึด.......
F#/Ebm/G#m/C#/F#/Ebm/G#m/C#
จึด.......
[ 'till fade ]
ดาวน์โหลด Full Song
กด *424243131486584
กด *424243131486584
ดาวน์โหลด Truetone
กด *424218131486584
กด *424218131486584
กด *424218131486584
ดาวน์โหลด Poly
กด *424214131486584
กด *424214131486584
กด *424214131486584
ดาวน์โหลด Mono
กด *424211131486584
กด *424211131486584
กด *424211131486584
* อัตราค่าบริการดาวน์โหลด Fullsong, Truetone, Poly, Mono : 35 บาท/เพลง
ส่งเพลงนี้ให้เพื่อน
วันที่โพสต์ : 30 มี.ค.2547,12:17น.
จำนวนผู้ชม : 492190 คน / แสดงความคิดเห็น : 144 ครั้ง
โพสต์โดย


จาก: คนหล่อ
Guest
เพลงแนะนำ
เพลงฮิต
เลือกแสดงเฉพาะ :

  • gfh
    Guest
  • 1 เม.ย.2547,13:23น.
    fhghfg
  • KTR
    Guest
  • 2 มิ.ย.2547,19:12น.
    ชอบ
  • bos
    Guest
  • 11 มิ.ย.2547,17:46น.
    good............................ 
    ((อัพเดทคอร์ดกีต้าร์))
  • ปอนด์
    Guest
  • 19 มิ.ย.2547,10:23น.
    ขอตรงโซโล่ตรงท่อนกลางหน่อยสิ
    ที่มันต้องเล่นเป็นเส้นอ่ะ
    ((ขอคอร์ดกีต้าร์))
  • หน้าตาดี
    Guest
  • 14 ก.ค.2547,14:51น.
     ชอบเพลงนี้มาก 
  • มนุษย์ ค....ว........ย
    Guest
  • 18 ก.ค.2547,18:12น.
    ค.........ว...........ย
  • เด็กสมุทรปราการ
    Guest
  • 19 ก.ค.2547,21:01น.
    อยากได้ Tab SoLo มากเลยครับ ใครช่วยแกะให้หน่อย
  • mekLOaSo
    Guest
  • 28 ก.ค.2547,22:18น.
    แต่ดีด เราว่าดีด คีย์ G E Am D เพราะหนังสือเค้าก็แกะมาคีย์นี้อะ แต่ในเพลงจะมาคีย์นั้น แน่นอน 
  • aa
    Guest
  • 29 ก.ค.2547,14:12น.
    อยากได้ Tab SoLo มากเลยครับ ใครช่วยแกะให้หน่อย
  • โลโซ
    Guest
  • 1 ส.ค.2547,22:54น.
    คอร์ดยากจัง
  • x
    Guest
  • 14 ส.ค.2547,08:10น.
    สอนเกาหน่อย :
    ((อัพเดทแหล่งทดลองฟัง))
  • Greet
    Guest
  • 14 ส.ค.2547,16:57น.
    ขอบคุณมากครับ 
    ผมนักร้องนำวง Greet
    จาก bbt
  • xxxxxxx
    Guest
  • 17 ส.ค.2547,08:52น.
    ขอtaที 
    ((ขอคอร์ดกีต้าร์))
  • เว็บมาสเตอร์
    Guest
  • 20 ส.ค.2547,20:57น.
    โปรดสุภาพด้วยครับ 
  • เggg
    Guest
  • 20 ก.ย.2547,20:22น.
    คีย์ต่ำไปครึ่งเสียงอะ
  • พลอย
    Guest
  • 26 ก.ย.2547,10:45น.
    ขอtabค่ะ
  • คนบ้า sex
    Guest
  • 27 ก.ย.2547,10:27น.
    ง่าย มากๆๆ เพลงเนี่ยอะ เด๋วเอา tap มาให้
  • พลอย
    Guest
  • 28 ก.ย.2547,21:15น.
    ขอบคุณค่ะ 
  • @เด็กฝึกหัดอ่ะ@
    Guest
  • 7 ต.ค.2547,05:14น.
    เอ่อ เล่นคอร์ด ตามนี้ก้อได้อ่ะคับ
    G Em Am D
    วันนี้ฝนตก ไหลลงที่หน้าต่าง
    .....................

    C Bm Em Am D G G7
    เธออาจจะมีใคร คนนั้นที่แสนดี ส่วนฉันคนนี้ก้อคงจะเศร้าใจ

    C Bm Em Am C D
    เธออาจจะมีแฟนแล้วก้อเป็นได้ ก้อยังสงสัย ยังอยากจะรู้

    ก้อ ลองไปเล่นดูน่ะคับ
  • .
    Guest
  • 15 ม.ค.2548,18:23น.
    1)-------------------------------------------------------------
    2)-12------12--------------------------------------------
    3)---12-14--12-14-11-12--12-11-11-12-16-14-14-14----
    4)---------------------------------------14------------------------
    5)------------------------------------------------------------
    6)---------------------------------------------------------------

    1)-------------------------------------------------------------
    2)-12-----------12--------------------------------------------
    3)---14-12-14--12-14-11-12--12-11-11-12-16-14-16-14----
    4)-------------------------------------------14------------------------
    5)------------------------------------------------------------
    6)---------------------------------------------------------------

    1)
    2)-15-13-12-13-15--12-13-12---------------------------------------------------------15
    3)-------------------------------14----14-12-11-12-14-16-14-12-----12-12-14-16-14-12
    4)------------------------------------------------------------------------12-14
    5)
    6)

    1)
    2)
    3)-12-14-12------12
    4)------------14-12
    5)
    6)
  • .
    Guest
  • 15 ม.ค.2548,18:23น.
    1)-------------------------------------------------------------
    2)-12------12--------------------------------------------
    3)---12-14--12-14-11-12--12-11-11-12-16-14-14-14----
    4)---------------------------------------14------------------------
    5)------------------------------------------------------------
    6)---------------------------------------------------------------

    1)-------------------------------------------------------------
    2)-12-----------12--------------------------------------------
    3)---14-12-14--12-14-11-12--12-11-11-12-16-14-16-14----
    4)-------------------------------------------14------------------------
    5)------------------------------------------------------------
    6)---------------------------------------------------------------

    1)
    2)-15-13-12-13-15--12-13-12---------------------------------------------------------15
    3)-------------------------------14----14-12-11-12-14-16-14-12-----12-12-14-16-14-12
    4)------------------------------------------------------------------------12-14
    5)
    6)

    1)
    2)
    3)-12-14-12------12
    4)------------14-12
    5)
    6)
  • จอมโจรคิดส์
    Guest
  • 12 ก.พ.2548,14:14น.
     เล่นยากมากเยย
    ((ขอคอร์ดกีต้าร์))
  • บอล
    Guest
  • 1 มี.ค.2548,16:10น.
              
  • น้ำพริกเผา
    Guest
  • 12 เม.ย.2548,08:39น.
    คอร์ดข้างบนมันดรอปเสียงลงมา 1 ช่องอ่ะ

    คอร์ดจริงไม่ยากแบบนี้หรอก
  • โอ๊ต
    Guest
  • 20 เม.ย.2548,23:31น.
    1)--------0---0------------020-
    2)--3-03-0-0-1-010--3------
    3)---0------0----2-----1--------
    4)-----------------------0--------
    5)---------------0----------------
    6)--3------0---------------------

    เล่นตามนี้ น่าจะถูกนะคับ G/Em/Am/D
  • uie
    Guest
  • 26 ก.ค.2548,19:05น.
    เนี่ยอยู่ชมรมการแสดง(fun star วาไรตี้)   อาจารย์ให้มาร้องเพลง ให้ฟัง  
    เลยเลือกเพลงนี้
  • คนหัดเล่น
    Guest
  • 13 ส.ค.2548,23:44น.
    อยากได้ Introอะ
  • แม็ค
    Guest
  • 14 พ.ย.2548,19:00น.
    ผมคีGนะคร้าบลองดูละกันนะบอกไว้ก่อนประมาณ70%ขึ้นพอดีฟังแล้วแกะตามเลย เลยไม่ชัว
    1|-----------1-1------------0-1(นิ้วกระแทกไม่ใช้ดีด)-2--0-2
    2|--3--0-3--------0---1----------------------------------3
    3|----0---------------0---------------------------------0 เกางี้2รอบ
    4|----------------2--------2------------------------------0 เกางี้2รอบ
    5|-----------------------0
    6|--3--------0

ขอเชิญร่วมแสดงความคิดเห็นครับ

คลิกที่รูป เพื่อแทรกรูปลงในข้อความ
  • Member :
    username
    password
  • Not a member :
    name
    email