Loading

ฟังเพลง เชื่อมั่น

อีโบล่า

อัพโหลดคลิปเพลงนี้ที่คุณ ร้อง/เล่น ด้วยตัวคุณเอง ได้แล้ววันนี้
ระหว่างการทดสอบระบบหากพบข้อผิดพลาด กรุณาแจ้งที่นี่
ชื่อเพลง เชื่อมั่น
ศิลปิน อีโบล่า
อัลบัม Enlighten

อย่ามัวจมไปกับความคิดแบบนั้น
อย่าไปกลัวในสิ่งที่ยังไม่ได้เกิด
อยากให้มองในสิ่งที่กว้างกว่านั้น
มีสักวันที่เราต้องทำได้ดังใจ

* ขอ.....เพียง.....ลอง.....
เปิดใจ...... ลอง..คิด..ใหม่
เพื่อก้าวไป

** เชื่อในสิ่งหวัง เชื่อในสิ่งที่ทำ
ลองกันดูสักครั้ง แค่เชื่อมั่น
สิ่งที่มันปิดกัน ลองพิสูจน์สิ่งนั้น แค่เชื่อมั่น

ลองทำดูให้เราได้รู้สักครั้ง
ด้วยพลังด้วยความมุ่งมั่นของตัวเอง
สิ่งที่คิดมันอาจไม่ใช่ความฝัน
ข้ามกำแพงไปสู่จุดนั้นด้วยความจริง

*, ** , **

เปิดใจ....ลองคิด....ใหม่ เพื่อก้าวไป

**,**
ส่งเพลงนี้ให้เพื่อน
วันที่โพสต์ : 23 ส.ค.2548,00:51น. 61.91.114.192
จำนวนผู้ชม : 12311 คน / แสดงความคิดเห็น : 24 ครั้ง
โพสต์โดย


จาก: โก
เข้าร่วม: 9 ปีก่อน
เพลง: 0
โพสต์: 2
เพลงแนะนำ
เพลงฮิต
เลือกแสดงเฉพาะ :

  • shikako
    Guest
  • 24 ส.ค.2548,10:06น.
    ออกใหม่ยะหยอ ชอบๆ  
  • Rigter of Darth
    Guest
  • 24 ส.ค.2548,13:11น.
    คอร์ด แท็ป
  • พั้งเดฟ
    Guest
  • 29 ส.ค.2548,12:14น.
    เพื่อก้าวไป

    อัลบั้มนี้เพลงเบาไป มาก

  • Guest
  • 30 ส.ค.2548,13:40น.
    ขอคอด+แทป
  • พั้งเดฟ
    Guest
  • 1 ก.ย.2548,16:47น.
    จงจำเอาไว้ ไม่ว่าเจ็บแค่ไหน

    งิๆ
    ((ขอคอร์ดกีต้าร์))
  • พั้งเดฟ
    Guest
  • 1 ก.ย.2548,16:47น.
    จงจำเอาไว้ ไม่ว่าเจ็บแค่ไหน

    งิๆ
    ((ขอคอร์ดกีต้าร์))
  • Dc
    Guest
  • 3 ก.ย.2548,19:21น.
    นุกดี
  • Q('.^)o...
    Guest
  • 10 ก.ย.2548,13:58น.
    ...หนุกทุกเพลงเยย ซะจิตดีงับ... เนื้อเพลงดูเบาฟังสบายหูดี คล้ายๆแบบ limpbizkit -results may vary- เลย... 
  • noom
    Guest
  • 10 ก.ย.2548,15:33น.
    มานนุกมากเลยอ่ะ
    ((ขอคอร์ดกีต้าร์))
  • ตังกวย
    Guest
  • 11 ก.ย.2548,21:37น.
    คอร์ดๆๆๆ

    อยากเล่น Intro มากๆๆๆๆๆๆๆ
    ((ขอคอร์ดกีต้าร์))
  • นัทคุง
    Guest
  • 14 ก.ย.2548,09:41น.
    ผมอยากได้คอร์ดกีต้าร์อ้าโพสทีสิคับ
  • PiPe-Castard@pp
    Guest
  • 14 ก.ย.2548,19:57น.
    อยากได้เหมือนกันครับ Metal ฟังคอร์ดยาก   แกะลำบากเป็นที่สุด
  • 16 ก.ย.2548,18:59น.
    ชื่อเพลง เชื่อมั่น
    ศิลปิน อีโบล่า
    อัลบัม Enlighten

    Intro D E D/C D C/Bb D Bb/A C (2times)
    D(6times) Bb A C

    D C
    อย่ามัวจมไปกับความคิดแบบนั้น
    Bb C
    อย่าไปกลัวในสิ่งที่ยังไม่ได้เกิด
    D C
    อยากให้มองในสิ่งที่กว้างกว่านั้น
    Bb C
    มีสักวันที่เราต้องทำได้ดังใจ
    C Bb A
    * ขอ.....เพียง.....ลอง.....
    Bb C E Bb
    เปิดใจ...... ลอง..คิด..ใหม่
    Bb
    เพื่อก้าวไป

    F D
    ** เชื่อในสิ่งหวัง เชื่อในสิ่งที่ทำ
    Bb C
    ลองกันดูสักครั้ง แค่เชื่อมั่น
    F D Bb C
    สิ่งที่มันปิดกัน ลองพิสูจน์สิ่งนั้น แค่เชื่อมั่น

    intru D(4times)

    D C
    ลองทำดูให้เราได้รู้สักครั้ง
    Bb C
    ด้วยพลังด้วยความมุ่งมั่นของตัวเอง
    D C
    สิ่งที่คิดมันอาจไม่ใช่ความฝัน
    Bb C
    ข้ามกำแพงไปสู่จุดนั้นด้วยความจริง

    *, ** , **
    intru D (10times) Bb A C

    Bb C E Bb
    เปิดใจ....ลองคิด....ใหม่ เพื่อก้าวไป

    **,**

    outro D 8 times


    ติ ชม ด้วย นะ ครับ เพราะ ไม่ แน่ จัย

  • มือใหม่
    Guest
  • 4 ต.ค.2548,02:47น.
    ชอบโว้ยยยยยยยยยยยยยยยยยยยยยยยยยยยยยยยยยยยยยยยยยยยยยยยยยยยยยยยยยยยยยยย      
  • ป่าน
    Guest
  • 10 ต.ค.2548,09:44น.
    เพลงนี้ต้อง drop สาย เพื่อให้ คอร์ดอยู่ในรายเดี่ยวกัน ใช่ปะ
  • จิ้ง
    Guest
  • 10 ต.ค.2548,19:58น.
    ช่าย ๆๆ ดอบสายๆๆ  
  • Hisoka_GenzI
    Guest
  • 25 ต.ค.2548,21:06น.
      
  • เบสเพท
    Guest
  • 8 พ.ย.2548,11:14น.
    อยากได้โน๊ตกลอง  ชอบเพลงนี้ความหมายดี  ชุดนี้เบาไปหน่อย  ชุดต่อไปแรงๆๆๆๆๆอีกถึงจะสมชื่อ
  • ear
    Guest
  • 6 ธ.ค.2548,14:15น.
    ไม่เห็นมีtab เลย
  • สายกีตาร์จี-สตริง
    Guest
  • 20 มี.ค.2549,18:23น.
    จะจัดเพลงนี้ช่วง อินโทรมาให้เล่นกันใครจะเอาบ้างโพสตอบด้วยนะ
  • อ้น-เอฟ แห่งวง Air-walk
    Guest
  • 2 พ.ค.2549,23:10น.
      Intro    Ebola  เชื่อมั่น

    Drop สาย6 เป็น D

    1----------------------------------------------------------------------------------------------------------
    2---------------------------------------------------------------------------------------------------------
    3-----------------------------------------------------------------------------------------10-10---------
    4----12-12-12-14-14-12-12---------10-10-10-12-12-10-10-------8-8-8-8---8--8-8----
    5----12-12-12-12-12-12-12---------10-10-10-10-10-10-10-------8-8-8-8---8--8-8----
    6----12-12-12-12-12-12-12---------10-10-10-10-10-10-10-------8-8-8-8---8--8-8----


    1---------------------------------------------
    2--------------------------------------------
    3--------------------------------------------
    4----7-7-7/--10-10-10-10------------
    5----7-7-7/--10-10-10-10------------
    6----7-7-7/--10-10-10-10----------- วน 2 รอบ น่ะครับ

    หมายเหตุ / สไลด์

    หาจังหวะการดีดเอาเองน่ะครับ ลองฟังกานดู อาจจะไม่เนียน แต่พอเป็นแนวทางในการเล่นได้ครับ

    เดี๋ยวจะมาต่อทอน Intro ให้อีกนิดนึง พอดีขี้เกียจพิมพ์อ่าครับ อิอิ
  • อ้น-เอฟ แห่งวง Air-walk
    Guest
  • 2 พ.ค.2549,23:10น.
      Intro    Ebola  เชื่อมั่น

    Drop สาย6 เป็น D

    1----------------------------------------------------------------------------------------------------------
    2---------------------------------------------------------------------------------------------------------
    3-----------------------------------------------------------------------------------------10-10---------
    4----12-12-12-14-14-12-12---------10-10-10-12-12-10-10-------8-8-8-8---8--8-8----
    5----12-12-12-12-12-12-12---------10-10-10-10-10-10-10-------8-8-8-8---8--8-8----
    6----12-12-12-12-12-12-12---------10-10-10-10-10-10-10-------8-8-8-8---8--8-8----


    1---------------------------------------------
    2--------------------------------------------
    3--------------------------------------------
    4----7-7-7/--10-10-10-10------------
    5----7-7-7/--10-10-10-10------------
    6----7-7-7/--10-10-10-10----------- วน 2 รอบ น่ะครับ

    หมายเหตุ / สไลด์

    หาจังหวะการดีดเอาเองน่ะครับ ลองฟังกานดู อาจจะไม่เนียน แต่พอเป็นแนวทางในการเล่นได้ครับ

    เดี๋ยวจะมาต่อทอน Intro ให้อีกนิดนึง พอดีขี้เกียจพิมพ์อ่าครับ อิอิ
1

ขอเชิญร่วมแสดงความคิดเห็นครับ

คลิกที่รูป เพื่อแทรกรูปลงในข้อความ
  • Member :
    username
    password
  • Not a member :
    name
    email