Loading

เพลง มากกว่ารัก

พีท เดอะสตาร์

อัพโหลดคลิปเพลงนี้ที่คุณ ร้อง/เล่น ด้วยตัวคุณเอง ได้แล้ววันนี้
ระหว่างการทดสอบระบบหากพบข้อผิดพลาด กรุณาแจ้งที่นี่
มากกว่ารัก - พีท เดอะสตาร์

Intro : Bm / E / Dm
A C#m F#m C#m
คนเคยเหงา เคยรู้สึกเหว่ว้า เคยมองหาความรักนั้นมันอยู่ที่ใด
D E C#m F#m Bm E
โลกใบใหญ่เหลือเกิน มีผู้คนอยู่มากมาย แต่หัวใจมันกลับเหงาขึ้นทุกที
A C#m F#m C#m
แต่เมื่อฉันได้พบกับเธอ สิ่งที่เธอ ให้ฉันไม่รู้มันคืออะไร
D E C#m F#m Bm E
โลกใบใหญ่ใบเดิม กลับไม่เคยต้องเหงาใจ แค่ฉันนั้นยังมีเธออยู่ตรงนี้
D C#m
* เธอเป็นมากกว่ารัก เพราะเธอนั้นคือครึ่งชีวิต
Bm E A A7
ฉันใช้เวลาทั้งชีวิตเพื่อตามหา และรอคอยเธอมาแสนนาน
D C#m F# Bm
และสุดท้ายก็เจอ ว่าเธอคือทุกอย่าง ที่เติมเต็มหัวใจ
E A
จากนี้ทุกลมหายใจฉันคือเธอ

A C#m F#m C#m
หากว่าเธอนั้นคือความรัก ก็เป็นรักที่ดีจนไม่มีคำบรรยาย
D E C#m F#m Bm E
ฉันโชคดีเหลือเกินที่มีเธอเดินข้างกาย ชีวิตนั้นได้เติมเต็มสิ่งที่ขาดหาย

( ซ้ำ * ) Solo: F#m /D / F#m / D / F#m / D //Bm C#m Dm ( ซ้ำ * )

Bm E A E A
จากนี้ทุกลมหายใจ...ฉันคือเธอ...
ดาวน์โหลด Full Song
กด *424243089596584
กด *424243089596584
ดาวน์โหลด Truetone
กด *424218089596584
กด *424218089596584
กด *424218089596584
ดาวน์โหลด Poly
กด *424214089596584
กด *424214089596584
กด *424214089596584
ดาวน์โหลด Mono
กด *424211089596584
กด *424211089596584
กด *424211089596584
* อัตราค่าบริการดาวน์โหลด Fullsong, Truetone, Poly, Mono : 35 บาท/เพลง
ส่งเพลงนี้ให้เพื่อน
วันที่โพสต์ : 24 มิ.ย.2550,20:08น. 203.188.25.138
จำนวนผู้ชม : 447217 คน / แสดงความคิดเห็น : 196 ครั้ง
โพสต์โดย


จาก: ยุตตี้
เข้าร่วม: 7 ปีก่อน
เพลง: 0
โพสต์: 13
เพลงแนะนำ
เพลงฮิต
เลือกแสดงเฉพาะ :

  • ติ๊ดตี่ ตลาดมหาชัย
    Guest
  • 5 ธ.ค.2553,22:30น. 192.168.1.109 182.52.22.45
    เพลงนี้ผมชอบมาก เลยคับ ความหมายตีคับ เธอเป็นมากกว่ารัก
  • หเทา่่้สหา
    Guest
  • 13 ก.ย.2556,10:08น. 10.1.5.17 202.29.191.157
  • คนชอบ
    Guest
  • 24 มิ.ย.2550,20:12น.
    เยี่ยมมาก
  • *0*
    Guest
  • 24 มิ.ย.2550,20:25น.
    เพราะดีออกเพลงนี้
  • ขอบคุณอย่างสุดอาลัย
    Guest
  • 24 มิ.ย.2550,23:07น.
    เรา ชอบ เพลงนี้ ตรงมากๆเลย เรา ชอบ ขอบคุณครับ คุณที่โพส ผมรักคุณ จริงๆ
  • esguitar
    Guest
  • 25 มิ.ย.2550,22:01น.
    มากกว่ารัก - พีท เดอะสตาร์

    Intro : Bm / E / A

    A C#m F#m C#m
    คนเคยเหงา เคยรู้สึกเหว่ว้า เคยมองหาความรักนั้นมันอยู่ที่ใด
    D E C#m F#m Bm E
    โลกใบใหญ่เหลือเกิน มีผู้คนอยู่มากมาย แต่หัวใจมันกลับเหงาขึ้นทุกที
    A C#m F#m C#m
    แต่เมื่อฉันได้พบกับเธอ สิ่งที่เธอ ให้ฉันไม่รู้มันคืออะไร
    D E C#m F#m Bm E
    โลกใบใหญ่ใบเดิม กลับไม่เคยต้องเหงาใจ แค่ฉันนั้นยังมีเธออยู่ตรงนี้

    Dmaj7 C#m
    * เธอเป็นมากกว่ารัก เพราะเธอนั้นคือครึ่งชีวิต
    Bm E A A7
    ฉันใช้เวลาทั้งชีวิตเพื่อตามหา และรอคอยเธอมาแสนนาน
    D C#m F# Bm
    และสุดท้ายก็เจอ ว่าเธอคือทุกอย่าง ที่เติมเต็มหัวใจ
    E A
    จากนี้ทุกลมหายใจฉันคือเธอ

    A C#m F#m C#m
    หากว่าเธอนั้นคือความรัก ก็เป็นรักที่ดีจนไม่มีคำบรรยาย
    D E C#m F#m Bm E
    ฉันโชคดีเหลือเกินที่มีเธอเดินข้างกาย ชีวิตนั้นได้เติมเต็มสิ่งที่ขาดหาย

    ( ซ้ำ * ) Solo: F#m D / F#m D / F#m D / Bm C#m Dm ( ซ้ำ * )

    Bm E A E A
    จากนี้ทุกลมหายใจ...ฉันคือเธอ...



    แก้คอร์ดนิดหน่อยคร้าบ

    ขอบคุณมากคร้าบ
  • mamoru
    Guest
  • 27 มิ.ย.2550,18:05น.
    แกะเพลงน้อยใจของแดนบีมให้หน่อยได้มั้ยค่ะ ((ขอคอร์ดกีต้าร์))
  • สาน
    Guest
  • 30 มิ.ย.2550,15:35น.
    ชอบบบบบบบบบ
  • แอ๊ป
    Guest
  • 6 ก.ค.2550,09:44น.
    ขอบคุณมากนะครับ ไว้คราวหลังผมจะมาใช้บริการใหม่นะครับ
  • ผู้อ่าน
    Guest
  • 10 ก.ค.2550,09:01น.
    ชอบมากเลยอ่ะ
    อยากได้คอร์ดเพลงมุม ของเพล์กราว
    ขอบคุณ ล่วงหน้า ((ขอคอร์ดกีต้าร์))
  • am-nan
    Guest
  • 17 ก.ค.2550,15:07น.
    thanks a lot.
  • เด็ก S.Y.
    Guest
  • 26 ก.ค.2550,20:00น.
    ชอบคนร้องเก่ง น่ารัก หล่อ เท่ห์ ดุดี เพอร์เฟค ที่สูดๆๆๆๆๆๆๆๆๆๆ



    คนรักพีท อิอิ ((ขอคอร์ดกีต้าร์))
  • ไม่จำเป็นต้องรู้
    Guest
  • 30 ก.ค.2550,22:36น.
    ปลื้มมากเลยเพลงนี้อ่ะ พี่พีทถ่ายทอดมาได้สุดๆเลย เยี่ยม
  • nuku
    Guest
  • 31 ก.ค.2550,01:23น.

    intro
    1)-------6-----7~9------9-------------------------------10----10--10--12--9-------------------
    2)-------5-----------------7------7------10---------------9--------------------------12--10-10--
    3)-------6-----------------7------------------------9-------------------------------------------------
    4)-------5-----------------9---------------------------------------------------------------------------
    5)------------------------------------------------------------------------------------------------------
    6)------------------------------------------------------------------------------------------------------

    ---------------------------------------10--12--13------------13-----------
    ----------------------10-----12--------------------------12----------------
    ---------------10------------------------------------------------------------
    ------12---------------------------------------------------------------------
    -------------------------------------------------------------------------------
    ------------------------------------------------------------------------------
  • ซ.5
    Guest
  • 6 ส.ค.2550,13:12น.
  • nuku
    Guest
  • 6 ส.ค.2550,22:15น.
    รับรองตรง100% :3
  • คนน่ารัก T.C.
    Guest
  • 15 ส.ค.2550,13:45น.
    เสียงคนร้องเพาะมากๆๆๆๆๆๆๆๆคะ คนร้องก็น่ารักมากๆๆๆๆๆๆๆๆๆๆๆคะ
  • มักกะโรนีซอสชีส
    Guest
  • 31 ส.ค.2550,14:10น.
    เพลงเพราะมั่กๆคิดถึงแฟนจังแฟนเราไปอยู่เชียงใหม่แร้วเค้าให้ฟังเพลงนี้อ่ะซึ้งมั่กๆ
  • PrI_pEe
    Guest
  • 1 ก.ย.2550,11:20น.
    โดนจัยมากมาย.......
  • จริงใจ
    Guest
  • 5 ก.ย.2550,14:42น.
    ช้อบชอบฟังเพลงแบบนี้ดีกว่าเพลงบ้าๆทำนองมั่วซั่วบอกได้เลยดีกว่ากันเยอะ
  • 123
    Guest
  • 7 ก.ย.2550,14:51น.
    ชอบมาก ๆ มากค่ะ
  • oDufyDeeFo
    Guest
  • 20 ก.ย.2550,17:32น.
    1)-------6-----7~9------9-------------------------------10----10--10--12--9-------------------
    2)-------5-----------------7------7------10---------------9--------------------------12--10-10--
    3)-------6-----------------7------------------------9-------------------------------------------------
    4)-------5-----------------9---------------------------------------------------------------------------
    มันจับไงหลายเล่นจังครับมาสอนหน่อยครับ(แบบว่าเพิ่งหัด)
  • Casanova
    Guest
  • 24 ก.ย.2550,22:43น.
    อยากได้
    โน้ตตอน
    Intro
    อะคราบบบบบบบบบบบบบบบบบบ
  • คนที่รักจูน
    Guest
  • 17 ต.ค.2550,00:57น.
    ก่อรักจูน นะ ก่อรักจูน นะ ก่อรักจูน นะ ก่อรักจูน นะ ก่อรักจูน นะ ก่อรักจูน นะ ก่อรักจูน นะ ก่อรักจูน นะ ก่อรักจูน นะ ก่อรักจูน นะ ก่อรักจูน นะ ก่อรักจูน นะ ก่อรักจูน นะ ก่อรักจูน นะ ก่อรักจูน นะ ก่อรักจูน นะ ก่อรักจูน นะ ก่อรักจูน นะ ก่อรักจูน นะ ก่อรักจูน นะ ก่อรักจูน นะ ก่อรักจูน นะ ก่อรักจูน นะ ก่อรักจูน นะ ก่อรักจูน นะ ก่อรักจูน นะ ก่อรักจูน นะ ก่อรักจูน นะ ก่อรักจูน นะ ก่อรักจูน นะ ก่อรักจูน นะ ก่อรักจูน นะ ก่อรักจูน นะ ก่อรักจูน นะ ก่อรักจูน นะ ก่อรักจูน นะ ก่อรักจูน นะ ก่อรักจูน นะ ก่อรักจูน นะ ก่อรักจูน นะ
  • ไร้สาระ
    Guest
  • 17 ต.ค.2550,19:23น.
    อย่าคิดไปเองดิ อาหิอาหิ
  • นางฟ้า
    Guest
  • 21 ก.พ.2551,11:58น.
    เพลงเพราะมากเลยคิดถึงคนนั้นจัง
  • 7-16-11
    Guest
  • 11 มี.ค.2551,13:49น.
    เมียสั่งให้ฟัง
  • เกมส์
    Guest
  • 16 มี.ค.2551,03:35น.
    แฟนผมชอบเพลงนี้มาก
  • route99
    Guest
  • 15 เม.ย.2551,14:18น.
    เสียดายคนร้และน้ำเสียง เฮ้อ ดันเป็น..แอบ...
1

ขอเชิญร่วมแสดงความคิดเห็นครับ

คลิกที่รูป เพื่อแทรกรูปลงในข้อความ
  • Member :
    username
    password
  • Not a member :
    name
    email