Loading

เพลง รอ

สล็อต แม๊คชีน (Slot Machine)

อัพโหลดคลิปเพลงนี้ที่คุณ ร้อง/เล่น ด้วยตัวคุณเอง ได้แล้ววันนี้
ระหว่างการทดสอบระบบหากพบข้อผิดพลาด กรุณาแจ้งที่นี่
แม้ว่าลมจะเปลี่ยนทิศไป 
เมฆที่ลอยจะเปลี่ยนสีไป
ฉันก็ยังไม่เปลี่ยนหัวใจที่มีให้เธอ

แม้ตะวันจะเลือนลับไป
ฝนจะซา จะหยุดหายไป
ฉันก็ยังไม่หยุดหัวใจที่ยังรอเธอ


* วันนั้น วันนี้ พรุ่งนี้วันที่เท่าไหร่
วันไหน วันนั้น แต่ฉันก็ยังรอเธอ
วันนั้นที่เคยได้รอตั้งแต่แรกเจอ
พรุ่งนี้ก็ยังจะรอแต่เธอเรื่อยไป


ฟ้าอาจเบื่อที่อยู่ข้างบน
โลกอาจเบื่อที่มันต้องกลม
แต่ฉันไม่เบื่อที่ยังมั่นคง โปรดจงเข้าใจ

แม้ว่าใครจะยังรักเธอ
แม้ว่าเธอจะยังรักใคร
ฉันก็ยังจะมีหัวใจให้เพียงแค่เธอ

ฉันไม่มีเหตุผลที่เป็นอย่างนี้มันเพราะอะไร
ฉันก็ไม่เข้าใจทำไมต้องเป็นแค่กับเธอ
รู้แค่เพียงว่าใจบอกฉันทุกวันว่าฉันรักเธอ
รู้แค่เพียงว่าใจสั่งให้ฉันรอ

รอเธอ... *
ส่งเพลงนี้ให้เพื่อน
วันที่โพสต์ : 23 มิ.ย.2547,17:56น.
จำนวนผู้ชม : 332143 คน / แสดงความคิดเห็น : 129 ครั้ง
โพสต์โดย


จาก: arm
Guest
เพลงแนะนำ
เพลงฮิต
เลือกแสดงเฉพาะ :

  • Cloud
    Guest
  • 23 มิ.ย.2547,19:56น.
    ขอคอร์ดหน่อยคับ   โดนเต็มๆ  เรื่องเราตรงๆ
    ((ขอคอร์ดกีต้าร์))
  • ^Ya_Cool_Sa^
    Guest
  • 23 มิ.ย.2547,19:56น.
    ขอคอร์ด กับ intro คับ  
  • Tearer
    Guest
  • 24 มิ.ย.2547,00:28น.
    อยากฟังอะหาฟังได้ที่เว๊บไรมั่งอะบอกหน่อย 
  • เดี่ยว House
    Guest
  • 24 มิ.ย.2547,12:15น.
    รอนานแล้ว อยากได้คอร์ดกีต้าครับ ใครก็ได้ช่วยที
    ((ขอคอร์ดกีต้าร์))
  • asus2_EP(เซียนซุ้ม)
    Guest
  • 24 มิ.ย.2547,17:08น.
    ชอบเพลงนี้เหมือนกันคับเลยลองแกะให้ผมคิดว่าน่าจะถูกต้องนะ  ส่วนท่อนโซโล่ง่ายมากคับ  อิโทรด้วยพยามหัดฟังแล้วแกะเองดีกว่าเพราะว่ามันง่ายจิงๆ     พยามหัดแกะเองเพื่อพัฒนาฝีมือกันเถอะคับ
  • 555
    Guest
  • 24 มิ.ย.2547,18:13น.
     ขอ tab intro กับ solo หน่อยดิ คนเก่งๆ โพสให้หน่อยนะ อยากได้มากๆ เลย ขอบคุณล่วงหน้านะ
  • 55
    Guest
  • 24 มิ.ย.2547,19:18น.
    รอ		slot machine


    Intro: A / C#m / F#m / E / A / C#m /F#m / E / A

    C#m
    แม้ว่าลมจะเปลี่ยนทิศไป

    F#m
    เมฆที่ลอยจะเปลี่ยนสีไป

    E A
    ฉันก็ยังไม่เปลี่ยนหัวใจที่มีให้เธอ

    C#m
    แม้ตะวันจะเลือนลับไป

    F#m
    ฝนจะซา จะหยุดหายไป

    E A
    ฉันก็ยังไม่หยุดหัวใจที่ยังรอเธอ


    F#m Bm
    * วันนั้น วันนี้ พรุ่งนี้วันที่เท่าไหร่

    E C#m
    วันไหน วันนั้น แต่ฉันก็ยังรอเธอ

    F#m Bm
    วันนั้นที่เคยได้รอตั้งแต่แรกเจอ

    E A / E
    พรุ่งนี้ก็ยังจะรอแต่เธอเรื่อยไป


    A C#m
    ฟ้าอาจเบื่อที่อยู่ข้างบน

    F#m
    โลกอาจเบื่อที่มันต้องกลม

    E A
    แต่ฉันไม่เบื่อที่ยังมั่นคง โปรดจงเข้าใจ

    C#m

    แม้ว่าใครจะยังรักเธอ

    F#m
    แม้ว่าเธอจะยังรักใคร

    E A / E
    ฉันก็ยังจะมีหัวใจให้เพียงแค่เธอ


    Bm E
    ฉันไม่มีเหตุผลที่เป็นอย่างนี้มันเพราะอะไร

    C#m F#m
    ฉันก็ไม่เข้าใจทำไมต้องเป็นแค่กับเธอ

    Bm E
    รู้แค่เพียงว่าใจบอกฉันทุกวันว่าฉันรักเธอ

    C#M A / E
    รู้แค่เพียงว่าใจสั่งให้ฉันรอ


    solo : A / C#m / F#m / E / A / C#m /F#m / E / A


    รอเธอ... *

    A / C#m / F#m / E / 4 time
  • Playboyzzz
    Guest
  • 24 มิ.ย.2547,23:56น.
    E----------12^-12-----
    B-10-12-------------

    เพลงนี้แกะง่ายแต่เล่นยาก การดันสายหากทำไม่เหมือนก็ใช้สไลด์เอา ถึงเฟร็ต14
    ((อัพเดทคอร์ดกีต้าร์))
  • พุ
    Guest
  • 25 มิ.ย.2547,03:39น.
    เพลงนี้เพราะครับผมชอบ
  • ปอ
    Guest
  • 25 มิ.ย.2547,17:56น.
    เพลงนี้เพราะมากค่ะ ฟังไม่เบื่อเลยนะเนี่ย อิอิ 
    ((ขอคอร์ดกีต้าร์))
  • =Non@mE=
    Guest
  • 25 มิ.ย.2547,18:10น.
    Intro: A / C#m / F#m / E / A / C#m /F#m / E 

    A C#m
    แม้ว่าลมจะเปลี่ยนทิศไป

    F#m
    เมฆที่ลอยจะเปลี่ยนสีไป

    E A
    ฉันก็ยังไม่เปลี่ยนหัวใจที่มีให้เธอ

    C#m
    แม้ตะวันจะเลือนลับไป

    F#m
    ฝนจะซา จะหยุดหายไป

    E C#m
    ฉันก็ยังไม่หยุดหัวใจที่ยังรอเธอ ....


    F#m Bm
    * วันนั้น วันนี้ พรุ่งนี้วันที่เท่าไหร่

    E C#m
    วันไหน วันนั้น แต่ฉันก็ยังรอเธอ

    F#m Bm
    วันนั้นที่เคยได้รอตั้งแต่แรกเจอ

    E A / E
    พรุ่งนี้ก็ยังจะรอแต่เธอเรื่อยไป


    A C#m
    ฟ้าอาจเบื่อที่อยู่ข้างบน

    F#m
    โลกอาจเบื่อที่มันต้องกลม

    E A
    แต่ฉันไม่เบื่อที่ยังมั่นคง โปรดจงเข้าใจ

    C#m

    แม้ว่าใครจะยังรักเธอ

    F#m
    แม้ว่าเธอจะยังรักใคร

    E A / E
    ฉันก็ยังจะมีหัวใจให้เพียงแค่เธอ


    Bm E
    ฉันไม่มีเหตุผลที่เป็นอย่างนี้มันเพราะอะไร

    C#m F#m
    ฉันก็ไม่เข้าใจทำไมต้องเป็นแค่กับเธอ

    Bm E
    รู้แค่เพียงว่าใจบอกฉันทุกวันว่าฉันรักเธอ

    C#M A / E
    รู้แค่เพียงว่าใจสั่งให้ฉันรอ


    solo : A / C#m / F#m / E / A / C#m /F#m / E / A


    รอเธอ... *

    A / C#m / F#m / E / 4 time
  • =Non@mE=
    Guest
  • 25 มิ.ย.2547,18:24น.
    พอดีผมไม่ค่อยถูกกับนักร้องนำวงนี้นะคับ เหอๆๆ 
    แต่เหงเพื่อนๆๆอยากเล่นก็เลยยอมมาลงให้นะคับ

    intro
    1)-----------------------12----9---
    2)-----10---10---12--------------

    1)--------------------12----9-
    2)------10---12-------------- 2 รอ

    1)--------------------12----9-
    2)------10---12-------------- 2 รอ

    1)--------------------12----9-
    2)------10---12-------------- 2 รอ

    1)--------------------12----9-
    2)------10---12-------------- 2 รอ

    1)------------------------------------------
    2)------10---10----------10/12----10-
    แล้วก็ซ้ำด้านบนอีกแล้วก็จบด้วย
    1)-----------------------------------------
    2)------10---12-------12/14------10-

    หรือว่า intro จะจับคอร์ด Asus2 หรือ Aaad9 แล้วเกาก็ได้นะคับแต่แบบข้างบนจาเหมือนกว่า
    แต่ถ้าจาเกาก็เกาที่เส้น 3,2 และ 1 เวลาเกาที่เส้น 2 ให้จับคอร์ด A ลองแกะดูละกานนะขี้เกียจอธิบายมากเพราะ เราว่าข้างบนเสียงเหหมือนกว่าคับ อิอิ
  • mmm
    Guest
  • 25 มิ.ย.2547,18:25น.
    คือ อยากทราบว่า Slot machine มาจาก รร. 
    รอะคับ ที่ได้อันดับ 3 Hotwave ปี่ที่แล้วที่ใช้ชื่อวงตอนแข่งว่า อะลุ่มอล่วย อะคับช่วยบอกทีคับ
  • ยิม
    Guest
  • 25 มิ.ย.2547,18:42น.
    ฟังได้ที่ไหนหรอคับ ขอลิ้งค์หน่อยน้า >.<
  • asus2_ep
    Guest
  • 25 มิ.ย.2547,23:43น.
    ใครมาลอกคอร์ดแล้วโพสซำขอให้   เป็นหมัน 
  • asus2_ep
    Guest
  • 25 มิ.ย.2547,23:44น.
    ใครมาลอกคอร์ดแล้วโพสซำขอให้   เป็นหมัน 
  • 555
    Guest
  • 26 มิ.ย.2547,17:28น.
     แกะ Solo ให้หน่อยดินะ ใครเก่งได้ข้าพเจ้าขอคารวะ ช่วยหน่อยนะคนเก่งๆอะ 
  • =Non@mE=
    Guest
  • 26 มิ.ย.2547,20:39น.
    คือแบบว่าขอโทดทีจะด่ากลับต่อไปนี้นะคับ 
    พอดีผมไม่ได้ลอกของใครมานะคับ คือช่วยแหกตาดูให้ดีๆๆหน่อยดิคับว่าคอร์ดอะมันไม่เหมือนกาน
    ถ้ายังหาไม่เจอว่ามันไม่เหมือนตรงไหนก็ลองหาแว่นขยายมาส่องดูนะเพื่อจาหูตาสว่างขึ้นบ้างนะ
    แต่ไม่รู้ว่าคุณว่าผมหรือเปล่านะถ้าไม่ได้ว่าก็ขอโทดด้วยคับ แต่ถ้าว่าก็ด่ากลับละ อิอิ

  • เก๋าจัด
    Guest
  • 26 มิ.ย.2547,20:54น.
    มาจากร.ร.สาธิตศิลปากรณ์ ชื่อเก่าอลุ่มอล่วยแบน ญาติเราเอง หุหุหุ มีเพลงฟังเยอะแยะโฮะๆๆๆๆ อยากฟังกันหล่ะสิไม่แบ่งหรอ
  • เก๋าจัด
    Guest
  • 26 มิ.ย.2547,20:57น.
    ไอพวกชอบหาว่าคนโน้นลอกโน่นลอกนี่ก็หัดดูมั่งนะคับเราเปงเด็กยังรู้เลยว่ามานไม่เหมือนกัน แล้วถ้าจะหาว่าฝีมือเราอ่อนอ่ะนะ เจอได้คับ กีต้าร์อ่ะเจอกันได้  
  • หฟกฟหก
    Guest
  • 27 มิ.ย.2547,07:04น.
    อยากได้ท่อนโซโล่ด้วยคับ
  • asus2_ep
    Guest
  • 27 มิ.ย.2547,17:19น.
    ผมไม่ได้ตั้งใจจะว่าใครหลอกคับ ผมรู้ว่าพวกคุณเก่งๆกันทั้งนั้น เราทุกคนที่เข้ามาต่างก้อรักในดนตรีกับทั้งนั้น แต่ถ้ามันไปแทงใจดำใครเข้าก้อขออภัยละด้วย 
  • =Non@mE=
    Guest
  • 28 มิ.ย.2547,18:17น.
    โทดทีคับพอดีด้านบนลงผิดไปนิดนึง อันนี้ชัวร์คับ

    Intro และ Solo เพลง รอ ของ Slot machine มาแล้วคับสดๆๆจากเด็ก J.S. 37

    intro
    1)-----------------------12----9---
    2)---10-----10---12--------------

    1)--------------------12----9-
    2)------10---12-------------- 2 รอ

    1)-----------------------------------------
    2)------10---10-----10/12---------10---

    1)--------------------12----9-
    2)------10---12-------------- 3 รอ

    แล้วก็ซ้ำด้านบนอีกแล้วก็จบด้วย
    1)-----------------------------------------
    2)------10---12-------12/14------10-

    แต่ผมว่าแบบนี้มันสูงไปนิดนะคับ ผมเลยแก้มาให้หใม่ลองดูกาน

    1)-------------------------------------
    2)-----10-----------------------------

    1)--------------------------------------
    2)--------10---12---15/17---14----- ( 3 รอบ )

    1)---------------------------------------
    2)--10---10---10/12---10------------

    1)---------------------------------------
    2)------10---12---15/17---14-------- ( 3 รอบ )

    1)---------------------------------------
    2)--10---12----12/14------10--------

    แล้วก็ก่อนเริ่มฟังดีๆๆจะมีเสียงเบสเล่นตามนี้นะคับ

    5)----------------7/9-----7-------------------
    6)---5----5----------------------9--10---9--

    Solo (เริ่มเล่นตอนเริ่มคอร์ด A นะคับ)

    1)------------------------------------------------------------
    2)-10--10----12-----12/14-------------------------12---12------12/14-----12----------------------
    3)--------------------------------13-----13--14---------------------------------------14---14--------
    4)---------------------------------------------------------------------------------------------------------

    1)---------------------------------------------------
    2)-----------------------------------------10-------
    3)----------11/13----9------9---11---------------
    4)---16---------------------------------------------

    1)------------------------------------------------------------------------------------------------
    2)---10----12-----12/14-------------------------12---12------12/14/15-----14------------
    3)--------------------------------13-----13--14-----------------------------------------14----
    4)------------------------------------------------------------------------------------------------

    1)-------------------------------------------------------------------------------
    2)----------14/15--15---14--------12--12-------14-------12---------------
    3)---14--------------------------------------------------------------14--------
    4)--------------------------------------------------------------------------------

    ตอนจบก็มีเสียงเบสเล่นแบบด้านบนเลยคับ หุหุ
    ใครมีไรจาติชมก็ได้เลยนะคับ
    ส่วนลูกเล่นต่างๆๆในท่อน Solo เช่น การสั่น และอื่นๆๆ ก็ลองฟังและใส่เองไปได้เลยนะคับเพราะแต่ละคนถนัดไม่เหมือนกานนนน บายยยย

    ok อันนี้ชัวร์คร๊าบบบบบบบบบบ
  • mmm
    Guest
  • 28 มิ.ย.2547,18:24น.
    ถึงคุณเก๋าจัดและทุกคนนะคับ 

    คือผมอยากทราบว่านักร้องนำวง Slot machine ตอนนี้เรียนอยู่ที่ไหนหรอคับ
    ใครรู้ช่ยบอกทีคับ แล้วนักร้องนำวงนี้ชื่อไรหรอคับ บอกทีคับอยากรู้มากๆๆๆ
  • =Non@mE=
    Guest
  • 28 มิ.ย.2547,19:05น.
    รอ :  Slot machine (ไม่ชอบนักร้องนำ)  อิอิ

    ประกอบไปด้วยสมาชิกทั้ง 4 คือ เฟิร์ส ร้องนำ , ก่อน -กีตาร์ , แก๊ก -เบส , เกอร์ -กลอง พวกเขาทั้ง 4 รู้จักกันมาตั้งแต่เรียนชั้นประถมที่โรงเรียนสาธิตมหาวิทยาลัยศิลปากร ช่วงใกล้สอบเข้ามหาวิทยาลัย พวกเขาทั้ง 4 ตัดสินใจที่จะพักเรื่องการทำเพลง เพื่อหันมาตั้งใจสอบเข้าเรียนต่อในระดับอุดมศึกษา และ พวกเขาก็ประสบความสำเร็จเมื่อถึงวันประกาศผลสอบ พวกเขาทั้ง 4 สอบติดใน 3 สถาบันที่เขาตั้งใจเอาไว้ โดย แก๊ก สอบติดที่ คณะเศรษฐศาสตร์ ม.เกษตร , เกอร์ สอบติดที่ คณะนิเทศสตร์ ม.กรุงเทพฯ , ก่อน สอบติดที่ คณะดุริยางคศาสตร์ ม.ศิลปากร และ เฟิร์ส สอบติดที่ คณะมัณฑศิลป์ ม.ศิลปากร

    เปงไงบ้างคับอยากรู้ไรอีกก็ถามได้นะคับพอดีรู้จักกะเฟิร์สเค้า (แต่ม่ายค่อยถูกกันซะเท่าไหร่ อิอิ)
    จิงๆๆแล้วมันละเอียดกว่านี้นะคับแต่ขี้เกียจพิมพ์อะ เหอๆๆเอาเปงว่าอยากรู้ไรก็ถามมานะคับเด่วเอามาประจาญให้ อิอิ
    ((อัพเดทคอร์ดกีต้าร์))
  • เหอะๆ
    Guest
  • 28 มิ.ย.2547,19:40น.
    ทำไมไม่ชอบนักร้องนำอ่ะ
  • คนที่รอ
    Guest
  • 29 มิ.ย.2547,17:22น.
    เพลงนี้โดนมากๆชอบมากเลย

ขอเชิญร่วมแสดงความคิดเห็นครับ

คลิกที่รูป เพื่อแทรกรูปลงในข้อความ
  • Member :
    username
    password
  • Not a member :
    name
    email