Loading

เพลง รักคนมีเจ้าของ

ไอน้ำ (ไอ..น้ำ)

อัพโหลดคลิปเพลงนี้ที่คุณ ร้อง/เล่น ด้วยตัวคุณเอง ได้แล้ววันนี้
ระหว่างการทดสอบระบบหากพบข้อผิดพลาด กรุณาแจ้งที่นี่
Intro:A/Asus4 A/A/Asus4 A
A C#m F#m
ไม่ทราบมันเป็นไร ไม่รู้ว่ามาไง อาการณ์รักเธอ
Bm E A
ก็รู้มีคนจอง ยังบ้าไปยืนมอง ตกเย็นก็เพ้อ
A C#m F#m
ยิ่งให้มาเจอกัน ก็ฟลุ๊คไปวันวัน ไม่กล้าขอเบอร์
Bm E A
ก็รู้เธอมีแฟน ไม่ได้จะไปแทน ที่คนของเธอ
D E A C#m F#m
*ไอคนมาที่หลัง ก็ต้องเศร้าต่อไป แต่อดใจไม่ไหว เมื่อได้ไกล้กับเธอ
Bm D E
จะจุกตายอยู่แล้วนะ ถ้ารักนี้ไม่ได้บอกเธอ
D E C#m F#m
**หลงรักคนมีเจ้าของ แอบมองอยู่ทุกวัน ไปหลงรักแฟนชาวบ้าน ทั้งที่รู้ตัว
Bm E A
เธอน่ารัก ถูกใจนัก ไม่เคยเป็นอย่างนี้
D E C#m F#m
หลงรักคนมีเจ้าของ แอบมองอยู่เช้าเย็น ก็รู้ว่าคงทำได้ แค่เท่านี้
Bm E A
แค่พบเธอ คิดถึงแล้วนอนฝันดี
(ดนตรี)A/Asus4 A
A C#m F#m
ไม่ได้จะเกเร ไม่คิดไปโมเม แย่งแฟนของใคร
Bm E A
ก็แค่เป็นอาการณ์ ของผู้ที่นาน จะแอบรักใคร
Solo:A/C#m/F#m/F#/Bm/E/A/G F#m
(ซ้ำ * / ** )
D E A
ได้พบเธอ ได้คิดถึง แล้วนอนฝันดี


เหะเหะมีคัยฟังแล้วมั่งอ่ะ
หวังว่าคงมีน้า
ส่งเพลงนี้ให้เพื่อน
วันที่โพสต์ : 11 ก.ย.2547,21:00น.
จำนวนผู้ชม : 154848 คน / แสดงความคิดเห็น : 157 ครั้ง
โพสต์โดย


จาก: ไก่
Guest
เพลงแนะนำ
เพลงฮิต
เลือกแสดงเฉพาะ :

  • บอย
    Guest
  • 11 ก.ย.2547,21:23น.
    ชอบเพลงนี้มากครับ ฟังแล้วยิ้มได้
    (อยากได้คนสอนก้ต้าร์โซโลให้หน่อยครับ
    ได้โปรดครับ
    ผมจะแข่งดนตรีที่โรงเรียนผมมีความฝันช่วยสอนให้หน่อนนะครับ)
  • บอย
    Guest
  • 11 ก.ย.2547,21:28น.
    ผมฟังแล้วครับ
  • ไก่
    Guest
  • 11 ก.ย.2547,21:57น.
    โซโล

    1)-------------------------------------------------------------------------------------------
    2)--------------------------------------------------------------------------------------------
    3)-----------14--16^14--------------14--16^14--------------14--16^14----------
    4)--14^16---------------16--14^16--------------16--14^16--------------16-------
    5)------------------------------------------------------------------------------------------
    6)--------------------------------------------------------------------------------------------

    1)--------------------------------------------------------------------------------------------------------
    2)------------------------------------------------------------------------------------------17----------
    3)---------14--16^14--------------14--------14---------14---------14----16/18----16-----
    4)-14^16-------------16--14^16----14^16---14^16----14^16-----------------------------
    5)------------------------------------------------------------------------------------------------------
    6)-----------------------------------------------------------------------------------------------------

    1)------------------------------------------------------------------------------------
    2)-------------------------------17--19^17-------------17--19^17------------
    3)-14--16^14-------16^18--------------18--16^18-------------18-------
    4)----------------16---------------------------------------------------------------
    5)---------------------------------------------------------------------------------
    6)------------------------------------------------------------------------------------

    1)----------------------------------------------------------19---17---------------
    2)----------17--19^17-------------17--19^17-----------------------------
    3)--16^18-------------18--16^18--------------18--------------------------
    4)--------------------------------------------------------------------------------
    5)---------------------------------------------------------------------------------
    6)---------------------------------------------------------------------------------
    ท่อนนี้เล่น2ไลน์

    1)---(21)(21)(19)(19)(17)(17)(16)(17)----------------------------------
    2)-----------------------------------------------(19)(17/19)------------------
    3)----------------------------------------------------------------------------------
    4)--14*-----------------(14)-----------------------------------------------------
    5)----------------------------------------------------------------------------------
    6)---------------------------------------------------------------------------------

    แต่ไม่แน่ใจว่าเล่น2ไลน์ทั้งหมดหรือปล่าว
    ถ้าเล่น2ไลน์ทั้งหมดก้อต้องเล่นเป็นโน้ตเสียงเดียวกันนะครับ
    อย่าพยายามด่า
    เพราะผมจะด่ากลับ
    มีอารัยแก้ไขเอง
    ((อัพเดทคอร์ดกีต้าร์))
  • รร
    Guest
  • 13 ก.ย.2547,10:18น.
    ดีมาาาาาาาาากกกกกก      
  • เพนกวินน้อย
    Guest
  • 13 ก.ย.2547,10:24น.
    แอบรักคนมีเจ้าของก้อต้องเศร้าต่อไป  เฮ้อ.........ออออออออ    
  • ที-สุเกะ
    Guest
  • 13 ก.ย.2547,12:19น.
    น่าเศร้า  โดนจิง จิง นะ   เหมือน ชีวิต เราเลย 
  • Moji
    Guest
  • 13 ก.ย.2547,12:50น.
    ดีครับ ชอบพี่ฟลุค 
  • แพน
    Guest
  • 13 ก.ย.2547,13:14น.
    "หลงรักคนมีเจ้าของ  แอบมองอยู่ทุกวัน  ไปหลงรักแฟนชาวบ้าน"ถ้างั้นก็เศร้าต่อไป  
    ((อัพเดทแหล่งทดลองฟัง))
  • แก้ว......ผู้น่ารัก
    Guest
  • 13 ก.ย.2547,13:49น.
    เพลงนี้เราฟังแล้วนะฮิๆๆๆเออเพลงเพราะดีเนอะจริงป่ะเพื่อนๆมิวสิกน่ารักดีนะนางเอกเป็นเราเองแหละฮิๆๆว่าๆเพื่อนๆเมล์มาคุยด้วยสิอยากมีเพื่อนใหม่นะ     
    ((อัพเดทคอร์ดกีต้าร์))
  • น้ำ
    Guest
  • 13 ก.ย.2547,14:40น.
    เพลงนี้น่ารักมาก คนร้องก้อน่ารัก  
  • คนรักเธอ
    Guest
  • 13 ก.ย.2547,16:16น.
    เพราะจริงๆๆ  MV. ก็ดีนะ!! ชอบP'ฟลุคมากๆ ( อัลบัมนี้ติ๊งต๊งดีจริงๆๆ )    
  • 00200
    Guest
  • 13 ก.ย.2547,17:15น.
    อยากฟังจัง 
  • may_narak
    Guest
  • 13 ก.ย.2547,17:59น.
    ชอบมาก.....มากเลยอ่ะเพลงเนี้ย
    โดนสุดๆ
  • ---
    Guest
  • 13 ก.ย.2547,19:01น.
    ขอแหล่งทดลองฟังด้วย
    ((อัพเดทแหล่งทดลองฟัง))
  • ส.ป.
    Guest
  • 13 ก.ย.2547,19:09น.
    ขอลิงค์ดาวน์โหลดเพลงนี้หน่อยครับ อยากฟังมากๆๆๆเพลงเพราะครับ
  • ghg
    Guest
  • 13 ก.ย.2547,21:03น.
            
  • คนอยากรู้
    Guest
  • 13 ก.ย.2547,22:23น.
    ฟังที่ไหน
  • คนรักพี่บีม
    Guest
  • 13 ก.ย.2547,22:41น.
    ชอบเพลงนี้มากเลยอ่ะ น่ารักดี แล้วมันก้อตรงด้วยแต่ตอนนี้เพิ่งรุมาว่าคนๆนั้นเค้าเลิกกะแฟนแล้ว ตอนนี้ก้อเลยไม่มีเจ้าของแล้วอ่ะนะ รักเทอจัง     
  • น้องหนึ่ง
    Guest
  • 14 ก.ย.2547,10:39น.
    ชอบเพลงนี้มากเลยค่ะ   
    ((ขอคอร์ดกีต้าร์))
  • แพร
    Guest
  • 14 ก.ย.2547,11:09น.
    mv โคดน่ารักอ่ะ...

    ชอบๆๆๆๆๆๆๆๆๆๆๆๆๆๆ

  • ก๊อบ
    Guest
  • 14 ก.ย.2547,15:54น.
    เพลงน่ารักดีนะ โดนใจจิงๆ 
  • หนุ่ม
    Guest
  • 14 ก.ย.2547,17:16น.
    เพลงนี้เป็นเพลงประกอบละครหรือเปล่า หรือว่าอย่างไร ใครรู้ก็ตอบมาด้วย ครับ 
  • ศรราม2
    Guest
  • 14 ก.ย.2547,17:22น.
    อยากฟังจางเลย
    ((อัพเดทแหล่งทดลองฟัง))
  • คนๆนั้น
    Guest
  • 14 ก.ย.2547,17:55น.
    อยากฟังๆๆๆๆๆ
    ((อัพเดทแหล่งทดลองฟัง))
  • ไอซ์
    Guest
  • 14 ก.ย.2547,17:59น.
    เพราะมาก ฟังแล้วนะ ยิ้มได้เลย
    ((อัพเดทแหล่งทดลองฟัง))
  • --
    Guest
  • 14 ก.ย.2547,18:10น.
    ไปดาวโหลดมาฟังที่เว้บwww.rs-promotion.com
    นะครับแล้วถ้าไม่อยากดูมิวสิกก็เอาไปฟังในwinampได้ด้วย

ขอเชิญร่วมแสดงความคิดเห็นครับ

คลิกที่รูป เพื่อแทรกรูปลงในข้อความ
  • Member :
    username
    password
  • Not a member :
    name
    email