Loading

เพลง รับได้ทุกอย่าง

แคลช (Clash)

อัพโหลดคลิปเพลงนี้ที่คุณ ร้อง/เล่น ด้วยตัวคุณเอง ได้แล้ววันนี้
ระหว่างการทดสอบระบบหากพบข้อผิดพลาด กรุณาแจ้งที่นี่

Artist : Clash
Album : Album One

Intro : G/A/Em ( ซ้ำ 2 ครั้ง )

C D B7 C D B7
รู้อยู่แก่ใจ ว่าเธอไปไหนมา เห็นอยู่ตำตา ว่าเธอไปกับเขา
G A B7 C D Em
นับได้เกือบเดือนที่ฉัน ไม่เจอะเธอแม้เงา รู้หรือเปล่าว่าฉันคิดมากเท่าใด
G/A/Em D
ฮู...................

C D B7 C D B7
แค่หลับตาลงก็พอนึกภาพออก ไม่บอกก็รู้ว่าเธอทำอะไร
G A B7 C D Em
เมื่ออยู่กับเขาเธอเองคงจะใจถึงใจ คิดเมื่อไหร่มันเหมือนมีดกรีดทุกที

G A B7 Em G A
* แต่กลับมาเถอะที่รัก ถ้าวันนี้เขาไม่แคร์ จะกลับมาอย่างคนแพ้
C D C D B7 C D B7
ก็ไม่ต้องลำบากใจ จะไม่เอ่ยถามสักคำ จะไม่ตอกย้ำซ้ำเติมหัวใจ
C D B7 Em F D G
จะโอบกอดเธอแม้ว่าเธอเคยกอดใคร ไม่เป็นไร ฉันรับได้ทุกอย่าง

Instru : G/A/Em

C D B7 C D B7
ฉันจับมือเธอ ด้วยมือที่ชุ่มเหงื่อ ไม่อยากจะคิด ว่าเหลือสักแค่ไหน
G A B7 C D Em
ทุกสิ่งที่ฉันได้เคย เฝ้าถนอมด้วยหัวใจ เธอคงให้ ให้เขาไปหมดแล้ว
G/A/Em G/A/Em
ฮู...............ฮู............ฮู..............ฮู..............

Instru : A/C/D/Em/G/A/C/D/Em

( ซ้ำ * )

F D G
ไม่เป็นไร ฉันรับได้ทุกอย่าง
ดาวน์โหลด Full Song
กด *424243010556584
กด *424243010556584
ดาวน์โหลด Truetone
กด *424218010556584
กด *424218010556584
กด *424218010556584
ดาวน์โหลด Poly
กด *424214010556584
กด *424214010556584
กด *424214010556584
ดาวน์โหลด Mono
กด *424211010556584
กด *424211010556584
กด *424211010556584
* อัตราค่าบริการดาวน์โหลด Fullsong, Truetone, Poly, Mono : 35 บาท/เพลง
ส่งเพลงนี้ให้เพื่อน
วันที่โพสต์ : 2 มี.ค.2546,18:16น.
จำนวนผู้ชม : 214991 คน / แสดงความคิดเห็น : 83 ครั้ง
โพสต์โดย


จาก: เว็บมาสซาเตอร์
เข้าร่วม: 9 ปีก่อน
เพลง: 0
โพสต์: 219
เพลงแนะนำ
เพลงฮิต
เลือกแสดงเฉพาะ :

  • imax
    Guest
  • 23 เม.ย.2547,11:09น.
    อิอิ อยากได้ท่อนsoloงับ 
  • หัดใหม่
    Guest
  • 1 พ.ค.2547,10:52น.
    อยากได้ท่อนsoloเหมือนกันครับ 
  • dreammer_man
    Guest
  • 7 พ.ค.2547,20:03น.
    อยากได้โน้ต tab 
  • คนดีไม่มี asdreess อยู่
    Guest
  • 5 ก.ค.2547,23:26น.
    ขอ tab เพลงนี้ด้วยอีกคนกั๊บ
    ((ขอคอร์ดกีต้าร์))
  • วิชญะ
    Guest
  • 14 ก.ค.2547,12:52น.
    ดี  
    ((ขอคอร์ดกีต้าร์))
  • 6+6+
    Guest
  • 24 ก.ค.2547,16:58น.
           
  • จุ้ย Lunatic
    Guest
  • 6 ส.ค.2547,14:57น.
    เราเกะได้แต่ท่อน อินโทอ่ะอยากได้ท่อนโซโล่จัง  
    ((ขอคอร์ดกีต้าร์))
  • 5555555-+
    Guest
  • 7 ส.ค.2547,20:24น.
    ------------5--------------------9--
    ------------9---3---5-----7----------8-----4----2----------
    ---------6-----4-8--------7----------5-----4--------6
    5-----------4----------6---------5---------6-----5----4
  • เบิร์ด
    Guest
  • 20 ส.ค.2547,12:32น.
    โดนใจมากพี่แบงค์
  • เบิร์ด
    Guest
  • 20 ส.ค.2547,12:33น.
    โดนใจมากพี่แบงค์              
  • เบิร์ด
    Guest
  • 20 ส.ค.2547,12:33น.
    โดนใจมากพี่แบงค์              
  • เบิร์ด
    Guest
  • 20 ส.ค.2547,12:33น.
    โดนใจมากพี่แบงค์              
  • นุ้ยกระทอม
    Guest
  • 10 ก.ย.2547,13:18น.
     ชอบเพลงนี้มากๆเลยตรับซึ้งมากๆ   
  • ตุ๊กบ้านสวน
    Guest
  • 25 ก.ย.2547,11:21น.
    อยากฟังซัก100รอบ 
  • มือกีตาร์Solo วง.....
    Guest
  • 3 ต.ค.2547,21:19น.
    เดี๋ยวพรุ่งนี้เอาSoloมาลงให้แกะได้แล้ว                
  • บอส
    Guest
  • 1 มี.ค.2548,21:49น.
    InTo
    3)-----4--4/7--6--2--2/4--0--4--4/7--6--2--2/4--0
    Solo
  • โดม (clashper)ฐาบิน
    Guest
  • 8 มี.ค.2548,13:53น.
    in to
    3)-------3/5---5/8---7----3----3/5-----
    4)-------------------------------------------6

    1)-------------------------------------------1hm
    2)--------------------------------------------
    3)-------3/5---5/8---7----3----3/5-----

    อันนี้ชัวกว่าเยอะ ผิดจะเลิกเล่นกีต้าร์
    ตลอดชีวิต
  • aun1
    Guest
  • 22 มี.ค.2548,15:53น.
    อินโทรของจิงอย่างนี้ต่างหากแกะมามั่วทั้งนั้นไม่เชื่อไปดูในมิวสิคเพลงนี้สิตรงทุกอย่าตอแฮ็คมันดีดเราดูรอบเดียวก้อเล่นได้แล้ว

    3/ ----------2s4s7- 6---2--4--0--------------เล่นอย่านี้2รอบเองไม่เหมื่อนให้เตะเลย

  • เด็กอุบล(จิ้ง)มือใหม่
    Guest
  • 27 มี.ค.2548,16:46น.
    Intro รับได้ทุกอย่าง			Clash

    1)-------------------------------------------------------------------------------------------

    2)-------------------------------------------------------------------------------

    3)---2/4-----/7--------6----------2------/4----0----(2times)-------------------------------------------


    SOLO*****

    G A Em G
    1)-------------------------------------------------------------------------------------------

    2)----/3-----------------/5/3----/5/3--------------------------------------3--------3----2-

    3)---------------/7---------/4/2------/4/2-----/4/2/--2/4/2-------------------------------------------

    4)-/5-------------------------------------------/4/2-//2/4/2----5/4--------/5---------/5-----------------/5--

    5)------------------------------------------------------------------------------------------

    6)-------------------------------------------------------------------------------------

    E A C D E
    1)-------------------------------------------------------------------------------------------

    2)-----4-------4------4-----------/55--5--53----------------------------------------

    3)--/2------/2------/2---------------------------------------5---4----------------------------

    4)---------------------------------------------------------------------5-4-5-4----------------4--2--4--2--------

    5)------------------------------------------------------------------------------------------------------------5--4---

    6)-------------------------------------------------------------------------------------


    E A C D
    1)-------7-------7----------7-------7-------7--------7-------/12--12--12--12--14----10-------------------------

    2)-/5------/5-------5-------5-------5-------5----------------------------------------12-------13-12-13-12

    3)-----------------------------------------------------------------------------------


    E G แต่กลับมาเถอะทีรัก..A...... G Em G A

    1)-------------------------------------------------------------------------------------------

    2)(12)--12-10-12-10--------------------------------------------------/15--/15----------------

    3)------------------------------12--11-------12--11--12--14--------------------------------- 12-11--12--14-----

    4)------------------------------------------------------------------------------------------

    มีไรผิดพลาดก้อขออภัย(มือใหม่)
  • เด็กอุบล(จิ้ง)มือใหม่
    Guest
  • 30 มี.ค.2548,09:01น.
    อันนี้แก้ใหม่นิดครับ

    Intro รับได้ทุกอย่าง Clash

    1)-------------------------------------------------------------------------------------------

    2)-------------------------------------------------------------------------------

    3)---2/4-----/7--------6----------2------/4----0----(2times)--------------------------------------

    SOLO
    G A Em G
    1)-------------------------------------------------------------------------------------------

    2)----/3-----------------/5/3----/5/3------------------------------------3------3---2-

    3)---------------/7---------/4/2-----/4/2--/4/2/2/4/2-------------------------------------------

    4)-/5-------------------------------------------/4/2/2/4/2----5/4-------/5--------/5--------/5--

    5)------------------------------------------------------------------------------------------

    6)-------------------------------------------------------------------------------------

    E A C D
    1)-------------------------------------------------------------------------------------------

    2)-----------------------------------/55--5--53----------------------------------------

    3)------4-------4------4------4--------------------------5---4---5--4--5--4-----4--2--4--2--

    4)-/2------/2-----/2-------/2---------------------------------------------------------------------5--4---

    5)-------------------------------------------------------------------------------------------------------------

    6)-------------------------------------------------------------------------------------


    E A C D
    1)-------7------7--------7------7------7-----7-----/12--12--12--12--14----10-----------

    2)-/5------/5------5------5-------5------5------------------------------------12-----13-12-13-12

    3)-----------------------------------------------------------------------------------


    E G แต่กลับมาเถอะทีรัก..A...... G Em G A

    1)-------------------------------------------------------------------------------------------

    2)(12)--12-10-12-10-----------------------------------------/15--/15----------------

    3)------------------------------12--11-----12--11--12--14--------------------- 12-11--12--14--

    C D
    1)-------------------------------------------------------------------------------------------

    2)-----/17---17----15^----15-------------------------------------------------------------------

    คาดว่าแน่นอนนะคราบบบบบบบ
  • Ruj barbarain
    Guest
  • 6 เม.ย.2548,22:44น.
    intro  
    3)----4--7--6--2--4----4--7--6--2--4--4
    4)----------------------5---------------------

    ลองดูเหมือนโครต

  • Ruj barbarain
    Guest
  • 6 เม.ย.2548,22:45น.
    intro  
    3)----4--7--6--2--4----4--7--6--2--4--4
    4)----------------------5---------------------

    ลองดูเหมือนโครต
  • Ruj barbarain
    Guest
  • 6 เม.ย.2548,22:47น.
    intro  
    3)----4--7--6--2--4----4--7--6--2--4--4
    4)----------------------5---------------------

    ลองดูเหมือนโครต
  • 000
    Guest
  • 18 เม.ย.2548,22:41น.
    เกายังไงคับช่วยบอกทีคับ
  • Bas
    Guest
  • 20 เม.ย.2548,00:58น.
    คันตรงไหนก็เกาตรงนั้นแหละจาไปยากอาไร
  • BaS
    Guest
  • 20 เม.ย.2548,01:12น.
    ถึงผู้ตอบที่5 ผมว่าของผมน่าจะชัวน้า
    Solo
    3------------9---------------------9-----------------------9------------------------9-----------
    4-----/7---------------/7-------------------/7-----------------------/7-----------------------------

    3-------12/14-----14---14-------14---12----------10----9-------9/10/9----9-7--9-7--9-7----

    2--------------12-------------12-------------12-----------12--------------12--------------12------
    3-----7/9------------7/9------------7/9-----------9--------------9----------------9-----------------

    2------15/17--17--17---------17-17/19-----15-----12---12/13/12----12----10---12--10-

    2-----8/7-----5--------------------------------------------------------------------

    ผมแกะเองนะครับ น่าจะชัวนะ มีไรเมล์มาคุยได้คับ ออนดึกๆ
  • นะคับ
    Guest
  • 22 เม.ย.2548,16:44น.
    เกายังไงอะคับ ขอคอส เกาที
  • บอส เองงับ
    Guest
  • 22 เม.ย.2548,21:10น.
    กำ ไม่อยากจะเกทับกัน แต่ solo ของผม ผมว่าถูกสุดแล้วนะ
    6)----------------------------------------------------------------------------------------------
    5)----------------------------------------------------------------------------------------------
    4)--2/9/2/9/2/9----------------------------------------------5-4-5-4------------------
    3)---------------------9-9-9-9p7-5-4h5-4h5-4--4-2-4-2-----------------------------
    2)------------------------------------------------------------------------------5/12/5/12-
    1)-----------------------------------------------------------------------------------------------

    ต่อๆๆ
    6)-----------------------------------------------------------------------------------------------
    5)-----------------------------------------------------------------------------------------------
    4)-----------------------------------------------------------------------------------------------
    3)--9----9----- 9------9-----------------------------------------------------------------------
    2)----12---12----12----12-------------------------------15--12h13-12h13-12-------
    1)--------------------------------12-12-12-12-12/14-------------------------------------

    ต่ออีกที ( ไม่จบสีกที )
    6)--------------------------------------------
    5)--------------------------------------------
    4)--------------------------------------------
    3)--------------------12-11-12-12/14--
    2)--12-10-12-10-------------------------
    1)--------------------------------------------
    ผมว่าน่าจะถูกที่สุดแล้วนะ ผิดตรงไหนอยากให้คนเก่งๆ แก้ให้ด้วย แต่ถ้าถูกดีแล้ว ชมได้มะว่า
  • gvd
    Guest
  • 8 ส.ค.2548,12:22น.
    แกะเหมือนจริงๆ นับถือ 

ขอเชิญร่วมแสดงความคิดเห็นครับ

คลิกที่รูป เพื่อแทรกรูปลงในข้อความ
  • Member :
    username
    password
  • Not a member :
    name
    email