Loading

เพลง ฤดูร้อน

พาราด็อกซ์ (Paradox)

อัพโหลดคลิปเพลงนี้ที่คุณ ร้อง/เล่น ด้วยตัวคุณเอง ได้แล้ววันนี้
ระหว่างการทดสอบระบบหากพบข้อผิดพลาด กรุณาแจ้งที่นี่
เพลง : ฤดูร้อน
ศิลปิน : Paradox (Paradox)
อัลบั้ม : Summer, On the Beach (2000)

Intro: A G#m F#m G#m (2times)

A G#m F#m G#m A
บ่อยครั้งที่ใจ เดินออกไปไม่มองข้างทาง
G#m F#m G#m
หยดน้ำตา อยู่กับการไม่มีค่า

D C#m Bm A
** ฉันเดินหลงทางอยู่กลางผู้คน สับสนวุ่นวาย
D C#m Bm E
หันไปหาเธอไม่เจอผู้ใด เมื่อเธอมาจากฉันไป

A G#m F#m E
* ยืนมองท้องฟ้าไม่เป็นเช่นเคย ฤดูร้อน ไม่มีเธอ
D C#m Bm E
เหมือนก่อน เหมือนเก่า ขาดเธอ อาฮา อาฮาฮา

(ซ้ำ *)

A G#m F#m G#m A
หยุดทั้งหัวใจ เดินออกไปไม่มีแสงดาว
G#m F#m G#m
โอบกอดน้ำตา โอบกอดหัวใจกับความเศร้า

(ซ้ำ **,*,*,*,*)

Instru: A G#m F#m G#m (2times)

A G#m F#m G#m A
บ่อยครั้งที่ใจ เปิดออกไปไม่ลืมเรื่องราว
G#m F#m G#m
ฉากเก่าย้อนมา เดินผ่านไปไม่เป็นเช่น..เดิม

จาก TPdox เว็ปไซค์ www.geocities.com/dox_club ครับ
ส่งเพลงนี้ให้เพื่อน
วันที่โพสต์ : 14 ก.พ.2547,15:51น.
จำนวนผู้ชม : 619583 คน / แสดงความคิดเห็น : 65 ครั้ง
โพสต์โดย


จาก: TPdox
Guest
เพลงแนะนำ
เพลงฮิต
เลือกแสดงเฉพาะ :

  • สาวก paradox
    Guest
  • 11 ต.ค.2548,21:26น.
    เหมือนที่สุดตั้งแต่เคยลง 
  • คุกกี้ กะ มิน
    Guest
  • 28 มี.ค.2549,11:07น.
    รักพี่ๆพาราด็อกซ์ทุกคนคร่า 
  • เดกแว๊น
    Guest
  • 20 มิ.ย.2549,09:22น.
    รักพี่ต้าพาราด็อกมากกกกกกกกกกกกกกกกกกกกกกกกกกกกกกกกกกกกกกกกกกกกกกกกกกกกกกกกกกกกกกกกกกกกกกกกกกกกกกกกกกกกกกกกกกกกกกกกกกกกกกกกกกกกกกกกกกกกกกก
    ((ขอคอร์ดกีต้าร์))
  • กิมs.w.k
    Guest
  • 10 ก.ย.2549,00:58น.
    รักมากครับ พาลาเด๊อะกะฝ้าย
  • หห
    Guest
  • 23 ม.ค.2550,22:58น.
    Artist : Paradox (พาราด็อกซ์)

    เพลง : ฤดูร้อน
    ศิลปิน : Paradox (Paradox)
    อัลบั้ม : Summer, On the Beach (2000)

    Intro: A G#m F#m G#m (2times)

    A G#m F#m G#m A
    บ่อยครั้งที่ใจ เดินออกไปไม่มองข้างทาง
    G#m F#m G#m
    หยดน้ำตา อยู่กับการไม่มีค่า

    D C#m Bm A
    ** ฉันเดินหลงทางอยู่กลางผู้คน สับสนวุ่นวาย
    D C#m Bm E
    หันไปหาเธอไม่เจอผู้ใด เมื่อเธอมาจากฉันไป

    A G#m F#m E
    * ยืนมองท้องฟ้าไม่เป็นเช่นเคย ฤดูร้อน ไม่มีเธอ
    D C#m Bm E
    เหมือนก่อน เหมือนเก่า ขาดเธอ อาฮา อาฮาฮา

    (ซ้ำ *)

    A G#m F#m G#m A
    หยุดทั้งหัวใจ เดินออกไปไม่มีแสงดาว
    G#m F#m G#m
    โอบกอดน้ำตา โอบกอดหัวใจกับความเศร้า

    (ซ้ำ **,*,*,*,*)

    Instru: A G#m F#m G#m (2times)

    A G#m F#m G#m A
    บ่อยครั้งที่ใจ เปิดออกไปไม่ลืมเรื่องราว
    G#m F#m G#m
    ฉากเก่าย้อนมา เดินผ่านไปไม่เป็นเช่น..เดิม

  • กัน*
    Guest
  • 4 ก.พ.2550,16:34น.

    ไห้กลองเล่นปัยก่อน4ห้องนะแล้วค่อยเริ่ม

    ------------------------|-----------------------|-----------------------|------------------------------
    ------------------------|-----------------------|-----------------------|------------------------------
    ------------------------|-----------------------|-----------------------|------------------------------
    -----กลอง4ห้อง------|-----------------------|-----------------------|------------------------------
    ------------------------|-7-7-7-7-7-7-7-7-|-4-4-4-4-4-4-4-4-|-4-4-4-4-4-4-4-4--------
    ------------------------|-5-5-5-5-5-5-5-5-|-6-6-6-6-6-6-6-6-|-2-2-2-2-2-2-2-2--------
    4รอบ



    --------------------
    ---9h10p9------
    --------------9---- นี้3รอบ
    --------------------
    --------------------
    --------------------

    --9h10p9--------
    -------------10----
    -------------------- ตามด้วยนี่
    --------------------
    --------------------
    --------------------

    --9h10p9--------|--9h10p9-----12-9-----------|------------|--------------------------
    -------------10----|--------------10-------10-------|------------|---------------------------
    --------------------|-----------------------------9\6/|7---7/9--|----4-------6------7-----
    --------------------|------------------------------------|-----------|---------------------------
    --------------------|------------------------------------|-----------|----------------------------
    --------------------|------------------------------------|-----------|---------------------------

    -9-------------------
    ---10-------10-----
    -------9------------- 3รอบ
    ----------------------
    ----------------------
    ----------------------

    --9--10--12-------10--9--|--9p10p9---------|--9p10p9-----------------|-------------------------
    -------------------------------|--------------10----|--------------10---9-10----|-10-12--10-12-12/
    -------------------------------|----------------------|------------------------------|-------------------------
    -------------------------------|----------------------|------------------------------|-------------------------
    -------------------------------|----------------------|------------------------------|-------------------------
    -------------------------------|----------------------|------------------------------|-------------------------

    -------------------------------------------------------------------------
    -/14--14\12-10-----12--------------------------------------------
    -------------------------------------------------------------------------
    -------------------------------------------------------------------------
    -------------------------------------------------------------------------
    -------------------------------------------------------------------------

    ยิ่งเขียนยิ่ง งง ก้ปะมานนี้แหละแล้วก้ วนๆ กันปัย
  • กัน*
    Guest
  • 4 ก.พ.2550,16:41น.

    เฮ้ยเขียนริทึ่มผิด เอาไหม่ๆ แก้ไหม่
    และก้ลืมบอกว่าท่อนนี้ต้องวนกลับด้วยเปนแบบนี้

    ------------------------|-----------------------|-----------------------|------------------------------
    ------------------------|-----------------------|-----------------------|------------------------------
    ------------------------|-----------------------|-----------------------|------------------------------
    -----กลอง4ห้อง------|-----------------------|-----------------------|------------------------------
    ------------------------|-7-7-7-7-7-7-7-7-|-6-6-6-6-6-6-6-6-|-4-4-4-4-4-4-4-4--------
    ------------------------|-5-5-5-5-5-5-5-5-|-4-4-4-4-4-4-4-4-|-2-2-2-2-2-2-2-2--------

    -----------------------|-----------------------|-----------------------
    -----------------------|-----------------------|-----------------------
    -----------------------|-----------------------|-----------------------
    -----------------------|-----------------------|-----------------------
    -4-4-4-4-4-4-4-4-|-6-6-6-6-6-6-6-6-|-7-7-7-7-7-7-7-7-
    -2-2-2-2-2-2-2-2-|-4-4-4-4-4-4-4-4-|-5-5-5-5-5-5-5-5-

    โอเชละ ทั้งหมด4รอบตอนเริ่มน่ะ
  • 25 พ.ค.2550,01:25น.
    ฉันเดินหลงทาง
    1-----------------------------------------11-12-11-------------------
    2------------------------------------------------------12--------------- 3รอบ

    สับสนวุ่นวาย
    2-----------------------------------------11-12-11-------------------
    3------------------------------------------------------12--------------- 1รอบ

    หัดไปหาเธอ
    1--------------11-12-11------11-12-11
    2--------------------------12---------------12-13-12--------------------12----13----15
    3---------------------------------------------------------12-13-----15

    ยืนมองท้องฟ้าไม่เป็นเช่นเคย
    1-------------------11----------------------------------
    2-----------------------12------12-------------------- <<<< 3รอบครับ
    3----------------------------11------------------------

    ฤดูร้อนไม่มีเธอ
    1-11-12-13-14--12-11--11-12-11--11-12-11
    2-----------------------------------------12------------12---11-12---14--12--14--15^--12-14


    ยืนมองท้องฟ้าไม่เป็นเช่นเคย (รอบ2)
    1-------------------11----------------------------------
    2-----------------------12------12-------------------- <<<< 3รอบครับ
    3----------------------------11------------------------

    ฤดูร้อนไม่มีเธอ
    1-11-12-13-14--12-11--11-12-11--11-12-11
    2-----------------------------------------12------------12---11-12---14--12--14--15^--12-14-12



    ของจริงครับ
  • BBB
    Guest
  • 16 ก.ค.2550,18:35น.
    ขอแทบเบสได้ป่ะครับ ใครมีช่วยหน่อยนะครับ จะไปสอนน้องเล่นอ่ะ

    ((ขอคอร์ดกีต้าร์))
  • mo
    Guest
  • 1 ก.ย.2550,17:33น.
    ขอเบอร์หน่อย งับ &#9829;&#9787;&#9786;&#9830;&#9827;&#9824;&#9688;&#9675;&#9786;&#9644;!o๛&#9787;&#9829;&#9829;&#9829;&#9829;mo ส่งมาด้วย
  • บิน
    Guest
  • 7 ก.ย.2550,21:07น.
    ขอบคุณคับ
  • เคน
    Guest
  • 12 ม.ค.2551,17:22น.
    ไรวะงงงงมากมาย
  • เด็กนิรนาม
    Guest
  • 18 ม.ค.2551,11:01น.
    เพราะม้ากมากเลยคร้าบ
  • สมาคมชาว ROCK
    Guest
  • 13 มี.ค.2551,14:40น.
    ดีแล้วครับ ((ขอคอร์ดกีต้าร์))
1

ขอเชิญร่วมแสดงความคิดเห็นครับ

คลิกที่รูป เพื่อแทรกรูปลงในข้อความ
  • Member :
    username
    password
  • Not a member :
    name
    email