Loading

เพลง วณิพก

คาราบาว

อัพโหลดคลิปเพลงนี้ที่คุณ ร้อง/เล่น ด้วยตัวคุณเอง ได้แล้ววันนี้
ระหว่างการทดสอบระบบหากพบข้อผิดพลาด กรุณาแจ้งที่นี่
เมื่อดวงตาของฉันมันมืดมิด
แต่ชีวิตฉันยังไม่มืดลง
แม้ความรักยังเคยมีมั่นคง
จะร้างไกลไม่หวนกลับคืนมา

ออกยํ่าไปบนทางที่หิวโซ
มิรู้คืนรู้วันเวลา
ขอเศษเงินเศษทานผู้ผ่านมา
เพียงเมตตาฉันบ้าง...เป็นครั้งคราว

อยู่ในโลกความมืดอันลึกลับ
คงสดับรับได้แต่สําเนียง
จะมองหามองเห็นก็เป็นเพียง
ในความฝันยามฉันล้มตัวนอน

พอตื่นมาพานพบกับความหมาย.....
ยังหายใจเนื้อตัวยังผ่าวร้อน
ยังมีหวังเห็นดวงตะวันรอน
จะมัวนอนนิ่งเฉย...อยู่ทําไม

จึงมาเป็น.....วณิพกพเนจร
เที่ยวเร่ร่อน.....ร้องเพลงแลกเศษเงิน
ที่เหลือกินเหลือเก็บเป็นส่วนเกิน
จะนําเงินสะสม..รักษาดวงตา

จึงมาเป็น.....วณิพกพเนจร
เที่ยวเร่ร่อน.....ร้องเพลงแลกเศษเงิน
ที่เหลือกินเหลือเก็บเป็นส่วนเกิน
จะนําเงินสะสม..รักษาดวงตา

หากฉันเป็นตัวแทนความมืดมิด
ขอชดใช้ชีวิตที่เกิดมา
เพื่อทดแทนทุกท่านที่เมตตา
ด้วยนําพาเสียงเพลงสู่ผู้ฟัง

เป็นบทเพลงโลกมืดและความหมาย
จะกู่ก้องร้องไปไม่หยุดยั้ง
ใครจะว่าร้องเพลงให้ควายฟัง
ฉันว่ายังมีคนที่เข้าใจ

ใครจะว่าร้องเพลงให้ควายฟัง
ฉันว่ายังมีคนที่เข้าใจ
ใครจะว่าร้องเพลงให้ควายฟัง
ฉันว่ายังมีคน...ที่เข้าใจ
ดาวน์โหลด Poly
กด *424214037086584
กด *424214037086584
กด *424214037086584
ดาวน์โหลด Mono
กด *424211037086584
กด *424211037086584
กด *424211037086584
* อัตราค่าบริการดาวน์โหลด Fullsong, Truetone, Poly, Mono : 35 บาท/เพลง
ส่งเพลงนี้ให้เพื่อน
วันที่โพสต์ : 11 มี.ค.2546,09:43น.
จำนวนผู้ชม : 268387 คน / แสดงความคิดเห็น : 82 ครั้ง
โพสต์โดย


จาก: Noo_Mai
Guest
เพลงแนะนำ
เพลงฮิต
เลือกแสดงเฉพาะ :

  • sattra
    Guest
  • 20 มิ.ย.2551,18:58น. 118.174.206.183
      Bb     C        Dm          Bb        C            Dm

    * จึงมาเป็น...วณิพกพเนจร เที่ยวเร่ร่อน...ร้องเพลงแลกเศษเงิน

    Gm C7 Dm

    ที่เหลือกินเหลือเก็บเป็นส่วนเกิน จะนำเงินสะสม...รักษา ดวงตา


    เป็นอย่างนี้ต่างหากนะ 555
  • Dream Catcher
    Guest
  • 9 ก.พ.2547,08:01น.
    ชอบมั่กๆ
    ((ขอคอร์ดกีต้าร์))
  • kkkkkkkkui
    Guest
  • 27 มิ.ย.2547,01:08น.
    ขอtap
    ((อัพเดทแหล่งทดลองฟัง)) ((อัพเดทคอร์ดกีต้าร์)) ((ขอคอร์ดกีต้าร์))
  • คนคาราบาว
    Guest
  • 6 ก.ค.2547,13:38น.
    ผมอยากให้คาราบาวมาเล่นที่สารคามครับ ผมเป็นแฟนของคาราบาวครับ  
    ผมอยากบอกว่าชอบคาราบาวมากครับๆๆๆๆๆๆๆ
  • หนึ่ง
    Guest
  • 3 ก.ย.2547,12:10น.
    ทำไมไม่มีคอร์ดกีต้าร์ครับอยากได้มาก 
  • เด็กน้อยที่รัก
    Guest
  • 26 ก.ย.2547,20:46น.
    ทำไมไม่มีคอร์ดกีต้าร์ครับอยากได้มาก 

    ((ขอคอร์ดกีต้าร์))
  • โด่ง
    Guest
  • 1 ก.ย.2549,20:28น.
    ขอแท็ปหน่อยครับ  
  • โอ๊บ สธว
    Guest
  • 11 ก.ย.2549,23:38น.
    ท่อนอินโทร      Dm                    Dm                      C                              Dm

    1---------------/-5---56--5------- / 5-------------/-------------------------/----------------------------
    2----------6----/-----------------8-/--------------6/--8--6---5------------/-----------------------------
    3---7-----------/--------------------/---------7-----/----------------7---5--/--7-------------------------
    4---------------/---------------------/----------------/-------------------------/---------------------------
    5---------------/---------------------/-----------------/-------------------------/--------------------------
    6---------------/---------------------/-----------------/--------------------------/------------------------

    เเล้วกลัมาเลงนอีกรอบ

    เเกะเป็นเเต่อินโทร ใครเเกะsolo ได้บอกที
  • จากเด็กหลังเขา
    Guest
  • 12 ก.ย.2549,05:18น.
    ขอท่อนโซโล่หน่อยคับ   จะเป็นพระคุณอย่างมากๆๆๆๆ
  • จักรพันธ์
    Guest
  • 17 ก.ย.2549,21:45น.
    ขอ  solo  ท่อนกลางหน่อยครับ   
    ((ขอคอร์ดกีต้าร์))
  • เด็กถาปัด
    Guest
  • 23 ก.ย.2549,02:34น.
    โซโล่ไม่เหมือน
  • ถาปัดรังสิต
    Guest
  • 23 ก.ย.2549,02:40น.
    1--------------------------------------------------------------------
    2-------6--8/10-10-10^---8-10------6-6/8--8-5--6-5-----
    3----7-----------------------------------7---------------------7---

    วณิพก งะ งะงะ
  • เด็กพะเยา
    Guest
  • 2 ต.ค.2549,20:02น.
    มันไม่อยาก....แค่คุณลองแกะดู...
  • ตั้ม ชาวนาแบนด์
    Guest
  • 7 ต.ค.2549,06:16น.
    1------------------------------10--8-------------------------------------------------------------------------
    2---------6/8/6---7s10-------------8^---6/8/6-------------------6---------8s10s8-----6--5-----
    3----7-------------------------------------------------------7h5o7-----------7-------------------------5-
    1--------------------------------------------------------------------------------------------------------------
    2--------------------------------------------------------------------------------------------------------------
    3---5--7------------------------------------------------------------------------------------------------------
    แค่นี้ก่อนนะ อ่านหนังสือสอบก่อน วันหลังเด่ยวลงอก
  • ....
    Guest
  • 2 พ.ย.2549,03:01น.
    ขอคอร์ดหน่อยจิ
  • จิ้งแหลนไฟแห่ง โปลิเทคนิคลานนา
    Guest
  • 4 พ.ย.2549,19:09น.
    จะมีคอร์ด Dm/C /Dm แล้วDm/Bb/C/Dmและ Dm/Bm/G#m/C/Dm
  • มือกีต้าโรงเรียน
    Guest
  • 29 ต.ค.2549,17:00น.
    ไม่มีคอร์ดบ้างเลย
    ((ขอคอร์ดกีต้าร์))
  • benz แห่ง ขอนแก่น
    Guest
  • 1 พ.ย.2549,02:50น.
    INTRO: Cm Bb7 Ab Cm (2 ครั้ง) 
    Cm Bb7 Eb
    คุณๆ ครับ ผมมีเรื่องราว มาเล่าบอก
    Cm Bb7 Gm
    ก็เพื่อตอกย้ำ ความเป็นไปในสังคมบ้านเรา
    Ab Bb7 Eb Cm
    เท่าที่ดูมา การศึกษานั้นขาดไปวิชาหนึ่ง
    Ab Bb7 Eb Bb7
    จึงเอามาเป็นเพลง บรรเลงบอกไว้
    Cm
    (สร้อย) วิชาแพะ วิชาแพะ
    วิชาแพะ วิชาแพะ
    Eb
    เป็นวิชาที่ดูเหมาะสมกับสังคมไทย
    Cm
    เป็นวิชาที่ดูสอดคล้องกับคนรุ่นใหม่
    Ab
    เป็นวิชาที่มาสร้างเสริมชีวิตไทยๆ
    Bb7
    เรียนไว้ เรียนไว้ วิชาแพะ
    SOLO: Cm Bb7 Ab Cm (2 ครั้ง)

    Cm Bb7 Eb
    คุณๆ ครับ เรื่องราวที่ผมได้เล่าผ่าน
    Cm Bb7 Gm
    เป็นประสบการณ์ ที่พานพบมากมายในสังคม
    Ab Bb7 Eb Cm
    อันหลักวิชา ปรารถนาให้คนได้เล่นเป็นคน
    Ab Bb7 Eb Bb7
    บางคราว บางทีอับจน คนเล่นเป็นแพะ

    Cm
    (สร้อย) วิชาแพะ วิชาแพะ
    วิชาแพะ วิชาแพะ
    SOLO: Cm

    Bb7 Gm Cm
    เรียนวิชาอื่นสร้างสรรปัญญา
    Bb7 Gm Cm
    ออกมาทำมาหากิน
    Ab Bb7
    แต่เรียนวิชาแพะ
    Eb Cm
    นั้นฝึกความอดทน อดกลั้น
    Ab
    ประชาชนชาวไทย
    Bb7 Cm
    รับทราบไว้วิชาแพะรับบาป
    Ab
    จึงกราบเรียนมาเพื่อความเข้าใจ
    Bb7 G7
    เผื่อใครจะสนใจเล่าเรียนวิชาแพะ

    Cm
    (สร้อย) วิชาแพะ วิชาแพะ
    วิชาแพะ วิชาแพ
    วิชาแพะ
    SOLO: Cm
  • ?
    Guest
  • 21 พ.ย.2549,15:58น.
    ขอ  SOLOครับพี่ๆ
  • tayos
    Guest
  • 23 พ.ย.2549,08:54น.
    วณิพก

    E----------------------10-----------------------------------------------------------------------------
    B--------8-10-8-10----13^-10 -----------------------------------------------------------------
    G-7-10----------------------------12-10-12-10-------------10-----12^-12p10-12---------
    D-----------------------------------------------------12-10-12----12-----------------------------
    A------------------------------------------------------------------------------------------------------
    E--------------------------------------------------------------------------------------------------------

    E-----------------------------8h10-8--10---------------------------------------------------------------
    B-----------------------------------------------------------------------------------------------------------
    G-10-9h10p9--7--5--7-----------------12^-12-10-12-10-------------10-----10-12h14-12
    D--------------------------------------------------------------------12-10-12-----12------------------
    A-----------------------------------------------------------------------------------------------------------
    E-----------------------------------------------------------------------------------------------------------

    E------------------------------------------------------------------------------------------------------------
    B---------------------------------------------------------13^-15-13-------------------------------------
    G-10-12-10--10-9--------------------------------------------------14-12^--10-12-12^----------
    D----------------------12-10-10-10s12--10-------------------------------------------------10h12
    A--------------------------------------------------10-8----------------------------------------------------
    E------------------------------------------------------------------------------------------------------------

    E-----------------------------------------------------------------------------------------------------------
    B----------------------------------------------------------------------------13-15-13-------------------
    G--10-----12^-12--10-12-10-12-12^-10--------------10----10--------------14-12^-10-12
    D------12------------------------------------------12-10-12----12------------------------------------
    A------------------------------------------------------------------------------------------------------------
    E------------------------------------------------------------------------------------------------------------

    E------------------------------------------------------------------------------------------------------------
    B------------------------------------------------------------------------------------------------------------
    G-10-------------10---------------------------------------------------------------------------------------
    D-----12-10-12----12-10------------------------------------------------------------------------------
    A-------------------------------12-10-8-8--10-8-------------------------------------------------------
    E-------------------------------------------------------8-8------------------------------------------------
  • ยศ มือเก๋าแต่ไม่เก่ง
    Guest
  • 23 พ.ย.2549,11:06น.
    solo ใช่ไหมครับ โอ้ ขอบคุณมากๆ ครับ
  • ม็อบนะครับ
    Guest
  • 23 พ.ย.2549,17:07น.
    มีคอร์ดไหมครับเล่นอินโทรได้อยากตีคอร์ดมั่งอ่ะครับ
  • เด็กใต้ใจดี
    Guest
  • 28 พ.ย.2549,12:23น.

    หน้าจะมีเพลงเก่า ๆ มาบ้าง
    ((ขอคอร์ดกีต้าร์))
  • ม็อบนะครับ
    Guest
  • 1 ธ.ค.2549,22:35น.
    เอาหลวงพ่อคูณมาทีดิคร้าบ
  • เพรียว
    Guest
  • 28 ธ.ค.2549,11:19น.
    มากเเรง
  • แฟนเพลงคาราบาว
    Guest
  • 9 ม.ค.2550,17:38น.
    ขอแบบเป็นคอร์ดพร้อมเนื้อได้มะคะ ((ขอคอร์ดกีต้าร์))
  • จากเด็กหลังเขา
    Guest
  • 10 ม.ค.2550,18:48น.
    เยี่ยมมาก tayos ขอบคุณมากๆๆๆ ครับที่ลงท่อนโซโล่ให้

ขอเชิญร่วมแสดงความคิดเห็นครับ

คลิกที่รูป เพื่อแทรกรูปลงในข้อความ
  • Member :
    username
    password
  • Not a member :
    name
    email