Loading

เพลง หนาว

Clash

อัพโหลดคลิปเพลงนี้ที่คุณ ร้อง/เล่น ด้วยตัวคุณเอง ได้แล้ววันนี้
ระหว่างการทดสอบระบบหากพบข้อผิดพลาด กรุณาแจ้งที่นี่
หนาว 
Artist : แคลช (Clash)

Intro : A F#m Bm E

ดา.. A F#m Bm E

A F#m Bm
ฉันดูรูปถ่าย ฉันมองภาพเธอ
E A
แม้ว่าภาพเหล่านั้นคือความรักเก่า
F#m Bm
ฉันเองแสนเบื่อ ฉันเองแสนเศร้า
E
หัวใจมันเหงาเพราะขาดเธอ

D C#m Bm A
พอเวลาที่ขาดเธอไป จิตใจกังวลแสนทนเศร้า
D C#m Bm E
แต่ฉันก็รู้ว่าเพราะตัวเรา ที่ทำให้เธอต้องจากไป

A F#m F# Bm
* (ก็มัน)หนาว.. ..ใจจะขาดเพราะขาดเธอคนดี
E A
ขาดไอรักอบอุ่นที่เคยได้มี
F#m F# Bm
ฉัน ....เพียงต้องการเธอกลับมาหา
E A
โปรดเถอะหนากลับมา(มารักกัน)

Solo : D C#m C E
G C G E

D C#m Bm A
เธอคนเดียวยังอยู่ในใจ ไม่อาจมีใครทดแทนได้
D C#m Bm E
และฉันต้องย้ำว่ารักเพียงใด เธอจึงจะคืนกลับมาหา

( ซ้ำ * , * )

Solo : A F# Bm E A F# Bm

E A
โปรดเถอะหนากลับมามารักกัน

ดาวน์โหลด Full Song
กด *424243170586584
กด *424243170586584
ดาวน์โหลด Truetone
กด *424218170586584
กด *424218170586584
กด *424218170586584
* อัตราค่าบริการดาวน์โหลด Fullsong, Truetone, Poly, Mono : 35 บาท/เพลง
ส่งเพลงนี้ให้เพื่อน
วันที่โพสต์ : 14 เม.ย.2546,05:04น.
จำนวนผู้ชม : 180780 คน / แสดงความคิดเห็น : 72 ครั้ง
โพสต์โดย


จาก: NV pooh
Guest
เพลงแนะนำ
เพลงฮิต
เลือกแสดงเฉพาะ :

  • unknow
    Guest
  • 14 เม.ย.2546,05:35น.
    เพลงที่มีความไพเราะติดหูอีกเพลงหนึ่ง  ในงานชุดที่2ของวงเด็กรุ่นใหม่ฝีมือดี
    
    Line ดนตรีถือว่าแพรวพราวพอตัว

    เพลงนี้ก็เช่นกัน คอร์ดที่ลงเป็นคอร์ดสำหรับเล่นกีต้าร์ที่ให้ซาว์ดครอบคลุมเพลงโดยรวม
    เอาไว้เล่นแบบตีคอร์ดไปเรื่อยๆ
    แต่ถ้าจะแกะกันจริงๆจะพบว่าLineที่เกากีต้าร์ ไม่ได้เล่นในคอร์ดที่ลงนี้
    ผมยังไม่ได้แกะละเอียด แต่เท่าที่ฟังตั้งแต่เริ่มIntroจนจบท่อนแรก
    จะเกากีต้าร์แช่อยู่ที่คอร์ด Aadd9
    โดยเกากีต้าร์ในแพทเทิน .....เบส-3-2-3-1-3-2-3....
    เบส-----> หมายถึงดีดสาย4หรือ5 ในโนีตเดียวกับชื่อคอร์ด
    ตัวเลขหมายถึงตำแหน่งสายกีต้าร์ที่เราเกา

    คอร์ด Aadd9 หมายถึงคอร์ดA ที่เพิ่มโน๊ตตัวที่9 นั่นคือโน๊ตตัว B
    ดังนั้นการจับที่ง่ายที่สุดคือจับคอร์ดA ธรรมดาที่ช่อง2 แล้วยกนิ้วที่กดสาย2ขึ้น เพื่อให้เกิดเสียงโน๊ตตัวB ของสายเปล่าสาย2

    ท่อนต่อมาก็เช่นกันแต่เปลี่ยนรูปคอร์ดที่แช่จาก Aadd9 มาเป็นคอร์ดDadd9
    การจับคอร์ดนี้ก็เช่นกัน จับคอร์ดD ที่ช่อง2 แล้วยกนิ้วกลางขึ้นเพื่อให้เกิดเสียงโน๊ตE ของสายเปล่าสายที่1

    สรุป....ถ้าจะเล่นแบบพิสดารเพลงนี้ก็คือเกาในแพทเทินที่ว่า กับคอร์ดAadd9(ในท่อนแรก) หรือ Dadd9(ในท่อนต่อมาและท่อนสุดท้าย)
    โดยเปลี่ยนดีดเสียงเบสไปตามชื่อคอร์ดที่ลงไว้

    ส่วนท่อนฮุคดีดตีคอร์ดปรกติ

    นอกนั้นก็ไม่มีอะไรพิเศษ มีลวดลายการเรียบเรียงเสียงประสานนิดตรงท่อนฮุคที่ใช้คอร์ด F# ต่อจากคอร์ดF#m
    เพื่อให้อารมณ์เน้นๆ (ว่าใจจะขาดจริงๆ 555)
    กับกลุ่มคอร์ดแปลกๆของท่อนSolo ที่เรียบเรียงได้กลมกลืนดี แม้จะเป็นคอร์ดที่แปลกไปจากคอร์ดในกลุ่มของคีย์หลักของเพลง

    เพลงของClash ร้องยาก แต่ไพเราะมาก น่าเล่นครับ
  • unknow
    Guest
  • 17 เม.ย.2546,09:29น.
    คอร์ด Aadd9 ครับ
    

    E ||-------|---0--|-------
    B ||-------|---0--|-------
    G ||-------|---2--|-------
    D ||-------|---2--|-------
    A ||-------|---0--|-------
    E ||-------|---x--|-------

  • เด็กอายุ 13
    Guest
  • 8 ก.พ.2547,17:10น.
    ไพเราะมาก 
  • กอล์ฟ
    Guest
  • 12 มี.ค.2547,22:01น.
    เหอ ๆ ขอท่อนโซโล่ tap อ่าคร๊าบ
    ((อัพเดทคอร์ดกีต้าร์))
  • superx
    Guest
  • 14 มี.ค.2547,23:36น.
    อยากได้ tab ท่อน intro กะ solo เพลงนี้อ่ะครับ
    ช่วยแกะให้หน่อยครับ
  • ออฟเด็กราชบุรี
    Guest
  • 15 มี.ค.2547,10:22น.
    เห็นด้วย 
  • Gu.Peet
    Guest
  • 10 พ.ค.2547,14:43น.
    introนะครับ
    สาย1--0----------0--------------------------------------------|
    สาย2-----3--2------3--2--3--2---2h3/2--2h3/2--------|
    สาย3-----------2-----------------2---------------------4--2--|
    ต่อไปก้อSolo
    สาย2--9-10/10/10-----9-10/10/10--9-10/10/10----12-10-9---9-10/10/10--12-10-9
    สาย3--------------------9--------------------------------------9-------------9-----------------9---------9
    ---------9---10-9-12-10-14-12-15-14-----10-10-12-12-10-10----10-10-12-12-10-10
    -----------9-------------------------------------9----------------------------9---------------------------
    สาย2------10-10-12-12-10-10--9--10--12--10----|
    สาย3----9--------------------------------------------------|
    สุดท้ายก้อOuttro
    สาย1--10h8--12h6---5-6------------------------------------------------------------------|
    สาย2-------------------6-----8----6--8--ดา-ด๊าดา-โวล...---4h8--4h11--9-8-9-8-6----|
    สาย3-----------------------------7-------------------------------------------------------------|

    โปรดเถิดหนา กลับมา มารักกัน.....
  • ,hj,
    Guest
  • 1 ก.ค.2547,23:07น.
    .,
    ((ขอคอร์ดกีต้าร์))
  • เด็กยุ17
    Guest
  • 26 ก.ค.2547,21:55น.
    ไม่ทราบว่าจะมีใครรับผมเป็นศิทย์ไหมคับถ้ามีช่วยสอนหน่อยนะเพิ่งหัดเล่นคับพี่เมล์มานะจักขอบคุนมากๆเลยครับ
  • ....
    Guest
  • 28 ก.ค.2547,18:53น.
    แกะเก่งมาก
  • หล่อ
    Guest
  • 29 ก.ค.2547,10:20น.
    เจ๋งว่ะ 
  • คน
    Guest
  • 7 ต.ค.2547,12:41น.
    สอนเล่นแบบนี้หน่อยจิ  มานอ่านยางไง
    E ||-------|---0--|-------
    B ||-------|---0--|-------
    G ||-------|---2--|-------
    D ||-------|---2--|-------
    A ||-------|---0--|-------
    E ||-------|---x--|-------
  • -*-
    Guest
  • 11 ม.ค.2548,18:18น.
    ขอคอรฺดรีบหน่อยคับ 
    ((ขอคอร์ดกีต้าร์))
  • อยากรู้
    Guest
  • 18 ก.พ.2548,20:23น.
    คอร์ดง่ายๆไม่มีแล้วหรอค่ะ
  • ต้อม-พระประแดง
    Guest
  • 24 ก.ย.2548,16:41น.
    ทุกคน ๆ แช่ที่คอร์ด Aadd9  กับ  Dadd9    น่ะถูกแล้วคับ  
    แต่ว่าต้องเกาในแพทเทิน เบส-3-2-3-1-2-3-2 ถึงจะถูกคับ
  • NOTE _ วงShan_Nai
    Guest
  • 26 ธ.ค.2548,11:15น.
    1-------------------------------------------------------------------------------------------------/
    2----------------------0--------------------0-------------------0--------------------0---------/
    3-----------------2---------2---------2--------2---------2----------2---------1--------1----/
    4---------------0---0----0---0----0---0---0----0----0---0-----0---0----0---0---0---0--/
    5-----------0------------------------------------------2-----------------------------------------/
    6----------------------------------2-----------------------------------------0-------------------/
    ท่อน Intro ตัวRyt เล่นวนไปเรื่อยๆนะคับ
  • non
    Guest
  • 25 ม.ค.2549,10:23น.
    ขอบคุณ
  • jo
    Guest
  • 7 ก.พ.2549,09:16น.
    เพลงนี้กินใจมากครับ
  • ศิริพงษ์ โกศล
    Guest
  • 12 ก.พ.2549,17:09น.
    ขอsoloดีๆ 
  • ศิริพงษ์ โกศล
    Guest
  • 12 ก.พ.2549,17:14น.
    ขอsolo  แบบยาวๆ..............................   
  • Jeab
    Guest
  • 12 ก.พ.2549,19:42น.
    ชอบเพลงนี้ที่สุดเลย  
  • มือกีตาร์ วง frozen
    Guest
  • 11 มี.ค.2549,08:18น.
    ช่วยแกะแบบซาวครีมมาให้หน่อยคับ 
  • AidBodyslam
    Guest
  • 20 มี.ค.2549,22:44น.
    outtro ครับ เเก้ให้มันไม่ลง scale A
    1)-----12p10p9----12p10p9/7--------4--5------------------------
    2)-------------------------------------------5--------/7-----------5--5--7
    3)--------------------------------------------------------------/6-----------
    ดา-ด๊าดา-โวล...
    1)------------------------------------------------------------
    2)------------------10--------12------10--------9-------7(จะเขย่าสายหน่อยก้อได้เพื่อความเท่ 555+)
    3)----------9h11-----9h11-------------------------------
    4)---9h11--------------------------------------------------
  • AidBodyslam
    Guest
  • 20 มี.ค.2549,22:48น.
    outtro ครับ       เเก้ใหคุน   Gu.Peet   ของคุนมันไม่ลง scale A 

    1)-----12p10p9----12p10p9/7--------4--5------------------------
    2)-------------------------------------------5--------/7-----------5--5--7
    3)--------------------------------------------------------------/6-----------
    ดา-ด๊าดา-โวล...
    1)------------------------------------------------------------
    2)------------------10--------12------10--------9-------7(จะเขย่าสายหน่อยก้อได้เพื่อความเท่ 555+)
    3)----------9h11-----9h11-------------------------------
    4)---9h11--------------------------------------------------




  • AidBodyslam
    Guest
  • 20 มี.ค.2549,22:53น.
    outtro ครับ       เเก้ใหคุน   Gu.Peet   ของคุนมันไม่ลง scale A 

    1)-----12p10p9/7----10p9p7/5--------4--5------------------------
    2)-------------------------------------------5--------/7-----------5--5--7
    3)--------------------------------------------------------------/6-----------
    ดา-ด๊าดา-โวล...
    1)------------------------------------------------------------
    2)------------------10--------12------10--------9-------7(จะเขย่าสายหน่อยก้อได้เพื่อความเท่ 555+)
    3)----------9h11-----9h11-------------------------------
    4)---9h11--------------------------------------------------

    อานนี้ชัววววววววววววววว


  • นิว ว้ดด่าน
    Guest
  • 13 พ.ค.2549,09:59น.
    เจ๋งทุกคนเลย 555555555555555555555+
    ขอคอร์ดเพลง ภาพลวงตา --Body Slam
    ((ขอคอร์ดกีต้าร์))
  • แตงไทย
    Guest
  • 29 มิ.ย.2549,14:08น.
    สุดยอดเลย คับ  ...พวกพี่ๆๆ    
  • ผู้อยากรู้
    Guest
  • 23 ก.ย.2549,03:29น.
    ขอขอดและโซโล่kampang_kphotmail.com
  • ...............
    Guest
  • 3 ต.ค.2549,19:57น.
    หนาว 
    Artist : แคลช (Clash)

    Intro : A F#m Bm E

    ดา.. A F#m Bm E

    A F#m Bm
    ฉันดูรูปถ่าย ฉันมองภาพเธอ
    E A
    แม้ว่าภาพเหล่านั้นคือความรักเก่า
    F#m Bm
    ฉันเองแสนเบื่อ ฉันเองแสนเศร้า
    E
    หัวใจมันเหงาเพราะขาดเธอ

    D C#m Bm A
    พอเวลาที่ขาดเธอไป จิตใจกังวลแสนทนเศร้า
    D C#m Bm E
    แต่ฉันก็รู้ว่าเพราะตัวเรา ที่ทำให้เธอต้องจากไป

    A F#m F# Bm
    * (ก็มัน)หนาว.. ..ใจจะขาดเพราะขาดเธอคนดี
    E A
    ขาดไอรักอบอุ่นที่เคยได้มี
    F#m F# Bm
    ฉัน ....เพียงต้องการเธอกลับมาหา
    E A
    โปรดเถอะหนากลับมา(มารักกัน)

    Solo : D C#m C E
    G C G E

    D C#m Bm A
    เธอคนเดียวยังอยู่ในใจ ไม่อาจมีใครทดแทนได้
    D C#m Bm E
    และฉันต้องย้ำว่ารักเพียงใด เธอจึงจะคืนกลับมาหา

    ( ซ้ำ * , * )

    Solo : A F# Bm E A F# Bm

    E A
    โปรดเถอะหนากลับมามารักกัน
  • ผู้ฟังเพลงแคลชทุกเพลง
    Guest
  • 30 ต.ค.2549,07:16น.
    พระเจ้าผมสุดยอดเสียงเพราะ  และยังพระเจ้าทั้งวงด้วย  เก่ง

ขอเชิญร่วมแสดงความคิดเห็นครับ

คลิกที่รูป เพื่อแทรกรูปลงในข้อความ
  • Member :
    username
    password
  • Not a member :
    name
    email