Loading

เพลง หมอกหรือควัน

Bird

อัพโหลดคลิปเพลงนี้ที่คุณ ร้อง/เล่น ด้วยตัวคุณเอง ได้แล้ววันนี้
ระหว่างการทดสอบระบบหากพบข้อผิดพลาด กรุณาแจ้งที่นี่
Print

C D G

C
หมอกจางๆและควัน
D G
คล้ายกันจนบางทีไม่อาจรู้
C/D G
อยากจะถามดูว่าเธอเป็นดั่งหมอกหรือควัน
C D
*หมอกจะงดงามและทำให้เยือกเย็น
G Em
แสนจะเย็นสบายเมื่อยามเช้า
C Bm Am
ถ้าเป็นควันไฟถึงจะบางเบาหากเข้าในตาเรา
D G
ก็คงจะทำให้เสียน้ำตา
Bm Am
**เธอเป็นยังไงจึงอยากรู้เพราะฉันดูเธอไม่ออก
D
และยังคงไม่เข้าใจ
G Bm Am
บางทีเธอเป็นเช่นหมอกขาวและบางคราวเธอเป็นเหมือนควัน
D
ฉันนั้นชักไม่มั่นใจ
C D
เพราะถ้าฉันต้องเสี่ยงกับควันไฟ
G Em
จะเตรียมตัวและเตรียมใจ
Am D G
***ถอนตัวก็เพราะว่ากลัวจะเสียน้ำตา
( *,**,*** )
http://www.musicatm.com/thai/คอร์ดเพลง-หมอกหรือควัน-Bird-1250.html
ส่งเพลงนี้ให้เพื่อน
วันที่โพสต์ : 31 ม.ค.2547,22:51น.
จำนวนผู้ชม : 188158 คน / แสดงความคิดเห็น : 34 ครั้ง
โพสต์โดย


จาก: kit
Guest
เพลงแนะนำ
เพลงฮิต
เลือกแสดงเฉพาะ :

  • kit
    Guest
  • 2 ก.พ.2547,18:46น.
    ขอความเห็นจากเพื่อนๆด้วยครับ
  • จืด
    Guest
  • 5 ก.พ.2547,22:49น.
    ชอบครับ เพลลงนี้ ขอบคุณ คุณกิตนะครบ
  • aee
    Guest
  • 14 ก.พ.2547,09:16น.
    ชอบมาก
  • kann
    Guest
  • 19 มี.ค.2547,18:14น.
    ชอบเพลงนี้มากๆ เลย
    อยากฟัง อยากฟัง
  • kann
    Guest
  • 19 มี.ค.2547,18:14น.
    ชอบเพลงนี้มากๆ เลย
    อยากฟัง อยากฟัง
  • utum_13
    Guest
  • 27 ส.ค.2547,16:59น.
    สุดยอดคับ เพลงนี้ ขอบคุณคุณkit  
  • p^O^P
    Guest
  • 23 ก.ย.2547,17:42น.
    ชอบเพลงนี้ม้ากมาก แต่ถ้ามีเพลงพริกขี้หนูก็จะดีกว่านี้อีกนะคะ 
  • ฟาน นิสเตอรอย
    Guest
  • 25 มี.ค.2548,16:23น.
    สุดยอดคับผม ผมหามาตั้งนานแล้ว ขอบคุณคับ
  • yuki
    Guest
  • 29 ส.ค.2548,17:03น.
    เพลงนี้เพราะมากเลยค่ะความหมายก็ดีด้วย.....อยากรู้เหมือนกันว่าเขาจะเป็นหมอกหรือว่าควัน
  • ออย
    Guest
  • 26 ต.ค.2548,12:53น.
    สุดยอออออออด ไม่อยากเชื่อว่าจะมีเพลงคอด เพลงนี้ด้วย ขอบคุงก๊าบ
  • nian
    Guest
  • 30 ต.ค.2548,12:14น.
    เอาปัย
    ((ขอคอร์ดกีต้าร์))
  • piyoboy
    Guest
  • 28 เม.ย.2549,21:03น.
    สุดยอดครับ 

    แค่ลองหาดู เผื่อจะเจอ ก้อเจอจริงๆด้วย

    ชอบเพลงนี้จัง
  • เปา
    Guest
  • 1 พ.ค.2549,14:12น.
    ชอบครับ  ฟังแล้วกินใจดีคับ  สนุกครับ
  • ioio
    Guest
  • 26 พ.ค.2549,08:16น.
    ioio
  • wave
    Guest
  • 7 มิ.ย.2549,07:13น.
    ใจจ้า
  • chishimaru_
    Guest
  • 20 มิ.ย.2549,19:20น.
    ชอบมากมาย  
  • รักนะ
    Guest
  • 21 ก.ค.2549,09:40น.
    C D G

    C
    หมอกจางๆและควัน
    D G
    คล้ายกันจนบางทีไม่อาจรู้
    C/D G
    อยากจะถามดูว่าเธอเป็นดั่งหมอกหรือควัน
    C D
    *หมอกจะงดงามและทำให้เยือกเย็น
    G Em
    แสนจะเย็นสบายเมื่อยามเช้า
    C Bm Am
    ถ้าเป็นควันไฟถึงจะบางเบาหากเข้าในตาเรา
    D G
    ก็คงจะทำให้เสียน้ำตา
    Bm Am
    **เธอเป็นยังไงจึงอยากรู้เพราะฉันดูเธอไม่ออก
    D
    และยังคงไม่เข้าใจ
    G Bm Am
    บางทีเธอเป็นเช่นหมอกขาวและบางคราวเธอเป็นเหมือนควัน
    D
    ฉันนั้นชักไม่มั่นใจ
    C D
    เพราะถ้าฉันต้องเสี่ยงกับควันไฟ
    G Em
    จะเตรียมตัวและเตรียมใจ
    Am D G
    ***ถอนตัวก็เพราะว่ากลัวจะเสียน้ำตา
    ( *,**,*** )
  • หมอเมา
    Guest
  • 30 ต.ค.2549,22:00น.
    ผิดเพ หาคอร์ดที่ถูกมาลงดีกว่า ที่ให้มาช่วยไรไม่ได้เลย
  • นุช
    Guest
  • 7 มี.ค.2550,05:24น.
    C D G

    C
    หมอกจางๆและควัน
    D G
    คล้ายกันจนบางทีไม่อาจรู้
    C/D G
    อยากจะถามดูว่าเธอเป็นดั่งหมอกหรือควัน
    Am Bm
    *หมอกจะงดงามและทำให้เยือกเย็น
    C G
    แสนจะเย็นสบายเมื่อยามเช้า
    Am Bm C
    ถ้าเป็นควันไฟถึงจะบางเบาหากเข้าในตาเรา
    D
    ก็คงจะทำให้เสียน้ำตา
    G Em Am
    **เธอเป็นยังไงจึงอยากรู้เพราะฉันดูเธอไม่ออก
    D
    และยังคงไม่เข้าใจ
    G Em Am
    บางทีเธอเป็นเช่นหมอกขาวและบางคราวเธอเป็นเหมือนควัน
    D
    ฉันนั้นชักไม่มั่นใจ
    C D
    เพราะถ้าฉันต้องเสี่ยงกับควันไฟ
    Bm E
    จะเตรียมตัวและเตรียมใจ
    Am D G
    ***ถอนตัวก็เพราะว่ากลัวจะเสียน้ำตา
    ( *,**,*** )
  • F L Y II Be James
    Guest
  • 20 เม.ย.2550,13:46น.
    Song : หมอกหรือควัน
    Artist : เล็ก พราว
    Intro : Cmaj7/A/F#m/Bm/D/Asus4/Dsus2 D
    Em
    หมอกจางๆและควัน
    A Dsus2/D
    คล้ายกันจนบางทีไม่อาจรู้
    Em
    อยากจะถามดู..
    A Dsus2/D
    ว่าเธอเป็นดั่งหมอกหรือควัน

    Em F#m
    *หมอกจะงดงามและทำให้เยือกเย็น
    Em Dsus2/D
    แสนจะเย็นสบายเมื่อยามเช้า
    Em F#m Em
    ถ้าเป็นควันไฟ ถึงจะบางเบา หากเข้าในตาเรา
    A
    ก็คงจะทำให้เสียน้ำตา

    D F#m Em
    **เธอเป็นยังไงจึงอยากรู้... เพราะฉันดูเธอไม่ออก
    A
    และยังคงไม่เข้าใจ
    D F#m Em
    บางทีเธอเป็นเช่นหมอกขาวและบางคราวเธอเป็นเหมือนควัน
    A
    ฉันนั้นชักไม่มั่นใจ
    Cmaj7 A
    เพราะถ้าฉันต้องเสี่ยงกับควันไฟ
    F#m Bm
    จะเตรียมตัวและเตรียมใจ

    Em A D
    ***(จะ)ถอนตัวก็เพราะว่ากลัวจะเสียน้ำตา
    Solo : C/A/D (2 Times)
    ( *,**,***,*** )

    ผมเล่นอย่างงี้หละครับ ถูกป่าวไม่รู้นะ อิอิ
  • zzz
    Guest
  • 1 พ.ค.2550,16:57น.
    คล้ายๆๆอ่า แต่ก็ยังไม่ตรงแฮะ

    ยังไงก็ขอบคุงครับ

  • แน็ค
    Guest
  • 14 พ.ค.2550,19:01น.
    สุดยอดมากคับ เพลงนี้ เพราะมาก ๆ
    โดนใจผมสุด ๆ เลย
  • Let'Cry
    Guest
  • 20 พ.ค.2550,21:25น.
    Song : หมอกหรือควัน
    Artist : เล็ก สุรชัย
    Album : Sanamluang Connects

    หมอกจางๆและควัน

    คล้ายกันจนบางทีไม่อาจรู้

    อยากจะถามดู..

    ว่าเธอเป็นดั่งหมอกหรือควัน

    *หมอกจะงดงามและทำให้เยือกเย็น

    แสนจะเย็นสบายเมื่อยามเช้า

    ถ้าเป็นควันไฟ ถึงจะบางเบา หากเข้าในตาเรา

    ก็คงจะทำให้เสียน้ำตา


    **เธอเป็นยังไงจึงอยากรู้... เพราะฉันดูเธอไม่ออก

    และยังคงไม่เข้าใจ

    บางทีเธอเป็นเช่นหมอกขาวและบางคราวเธอเป็นเหมือนควัน

    ฉันนั้นชักไม่มั่นใจ

    เพราะถ้าฉันต้องเสี่ยงกับควันไฟ

    จะเตรียมตัวและเตรียมใจ


    ***(จะ)ถอนตัวก็เพราะว่ากลัวจะเสียน้ำตา
    Solo : C/A/D (2 Times)
    ( *,**,***,*** )
  • คิด
    Guest
  • 31 พ.ค.2550,22:36น.
    อยากได้เวอชั่นพี่เล็กพร้อมโซโล่อ่ะครับ ((ขอคอร์ดกีต้าร์))
  • คิด
    Guest
  • 2 มิ.ย.2550,21:16น.
    1 --------------------------------------------------------------------------------------------------------------
    2 ----3----5----7---8----7-------5------3-3--------3----3---5---7------------------------------------
    3 ---------------------------------------------------5-------------------------------------------
    4 -------------------------------------------------------------------------------------------------------
    5 ---------------------------------------------------------------------------------------------------------
    6 -----------------------------------------------------------------------------------------

    1 -----------------------------------------------------------------7----5-------------------------------------
    2 ----3----5----7---8----7-------5------3-3--------3----3------------------------------------------
    3 ---------------------------------------------------5-------------------------------------------
    4 -------------------------------------------------------------------------------------------------------
    5 ---------------------------------------------------------------------------------------------------------
    6 -----------------------------------------------------------------------------------------

    เวอชั่นพี่เล็กครับ
    แกะเองครับ ลองดูนะครับ มีอะไรผิดพลาด ขอให้ติชมด้วยนะครับ
  • น้องจอส
    Guest
  • 4 มิ.ย.2550,20:13น.

    1 --------------------------------------------------------------------------------------------------------------
    2 ----3----5----7---8----7-------5------3-3--11------5--7-------------------------------------
    3 ------------------------------------------------------2---------------------------------------
    4 -------------------------------------------------------------------------------------------------------
    5 ---------------------------------------------------------------------------------------------------------
    6 -----------------------------------------------------------------------------------------

    1 -----------------------------------------------------------------7----5------------------------------------- 2 ----3----5----7---8----7-------5------3-3--11----------------------------------------
    3 --------------------------------------------------------------------------------------------
    4 -------------------------------------------------------------------------------------------------------
    5 ---------------------------------------------------------------------------------------------------------
    6 -----------------------------------------------------------------------------------------

    น่าจะเป็นแบบนี่เปล่าอ่า เดาๆ ดูนะ
  • Rutz
    Guest
  • 5 มิ.ย.2550,16:25น.

    1 ---------------2---3---2------------------------------------------------
    2 ----3----5------------------5------3-3-------3-------5--7-----------
    3 --------------------------------------------4-------4--------------------
    4 --------------------------------------------------------------------------
    5 --------------------------------------------------------------------------
    6 --------------------------------------------------------------------------

    1 ---------------2---3---2-------------------------------/7---5---------
    2 ----3----5------------------5------3-3-------3------------------------
    3 --------------------------------------------4-------4--------------------
    4 --------------------------------------------------------------------------
    5 --------------------------------------------------------------------------
    6 --------------------------------------------------------------------------
  • 10
    Guest
  • 16 ส.ค.2550,16:51น.
    แล้วแบบไหนที่เรียนว่าตรงนะครับคอร์ดยังเพียนๆอยู่ แต่ก็สุดยอดที่หามาได้
  • p
    Guest
  • 9 ก.ย.2550,16:16น.
    ขอบจัยหลาย ถ้า อยากให้ตรงใจต้องแกะเองจ้า เราว่านะคุญ 10 อิอิอิ
  • Mong Bikini
    Guest
  • 30 ก.ย.2550,13:20น.
    Song : หมอกหรือควัน
    Artist : เล็ก พราว
    Intro : G/A/F#m/Dmaj7 C B /A/EonD /G A/D Dmaj7
    ลองต่อนะครับ
    ช่วยๆกันแกะนะครับ แลกเปลี่ยนกัน

ขอเชิญร่วมแสดงความคิดเห็นครับ

คลิกที่รูป เพื่อแทรกรูปลงในข้อความ
  • Member :
    username
    password
  • Not a member :
    name
    email