Loading

เพลง หวั่นไหว

บอดี้สแลม (Bodyslam)

อัพโหลดคลิปเพลงนี้ที่คุณ ร้อง/เล่น ด้วยตัวคุณเอง ได้แล้ววันนี้
ระหว่างการทดสอบระบบหากพบข้อผิดพลาด กรุณาแจ้งที่นี่
Artist : บอดี้สแลม (Bodyslam)
Album : Drive
Title : หวั่นไหว

รู้ก็ทั้งรู้ว่าเธอเป็นใคร และฉันก็ไม่คิดจะปีนขึ้นไป
คงไม่มีทางจะเป็นไปได้ ก็เรานั้นมันต่างกัน
ทำได้แค่เพียงเจียมตัวมันไปวันๆ ฉันเข้าใจ

แต่ฉันก็ไม่รู้เพราะความบังเอิญ หรืออันที่จริงฉันนั้นจงใจ
เวลาที่เธอมายืนใกล้ๆ ก็ยังเผลอไปสบตา
รู้ก็ทั้งรู้ว่าคงไม่มีปัญญา คงไม่มีหวัง

/// ไม่อยากจะเหลียวมอง ฉันคอยบอกตัวเอง แต่ยังทำไม่ได้
/// ไม่อยากจะสนใจ ก็รู้ว่าไม่มีทาง แต่ก็ไม่รู้ต้องทำอย่างไร
///
////// อดใจไม่ไหวเมื่อได้พบหน้า ยิ่งเธอส่งยิ้มคืนมายิ่งหวั่นไหว
////// ยังเป็นอย่างนี้อยู่ทุกวัน ฉันต้องคอยหักห้ามใจ
////// อดใจไม่ไหวทุกทีที่เจอ เพียงแค่แอบเผลอมองตาจะผิดไหม
////// เก็บเอาไปฝันอยู่ทุกคืน ฉันต้องทำตัวเช่นไร ช่วยบอกได้ไหมเธอ

/// , //////

ช่วยบอกได้ไหมเธอ
ส่งเพลงนี้ให้เพื่อน
วันที่โพสต์ : 11 ต.ค.2546,11:09น.
จำนวนผู้ชม : 407504 คน / แสดงความคิดเห็น : 195 ครั้ง
โพสต์โดย


จาก: เว็บมาสซาเตอร์
เข้าร่วม: 9 ปีก่อน
เพลง: 0
โพสต์: 219
เพลงแนะนำ
เพลงฮิต
เลือกแสดงเฉพาะ :

  • sad
    Guest
  • 5 ม.ค.2557,16:37น. 192.168.10.108 110.171.24.108
    คุณครับ
  • ไม่ล่ายอยู่เมืองไทย
    Guest
  • 14 ต.ค.2546,08:22น.
    อยากได้คอร์ดอะครับ
    
    วานผู้ใจดีทั้งหลายด้วยนะครับ
  • unknow
    Guest
  • 16 ต.ค.2546,19:56น.
    Artist : บอดี้สแลม (Bodyslam)
    
    Album : Drive
    Title : หวั่นไหว

    อินโทร - E/E/A/A [3times]

    E
    รู้ก็ทั้งรู้ว่าเธอเป็นใคร และฉันก็ไม่คิดจะปีนขึ้นไป
    C#m A
    คงไม่มีทางจะเป็นไปได้ ก็เรานั้นมันต่างกัน
    B
    ทำได้แค่เพียงเจียมตัวมันไปวันๆ ฉันเข้าใจ

    E
    แต่ฉันก็ไม่รู้เพราะความบังเอิญ หรืออันที่จริงฉันนั้นจงใจ
    C#m A
    เวลาที่เธอมายืนใกล้ๆ ก็ยังเผลอไปสบตา
    B
    รู้ก็ทั้งรู้ว่าคงไม่มีปัญญา คงไม่มีหวัง

    /// A G#m F#m G#m
    /// ไม่อยากจะเหลียวมอง ฉันคอยบอกตัวเอง แต่ยังทำไม่ได้
    /// A G#m F#m A B
    /// ไม่อยากจะสนใจ ก็รู้ว่าไม่มีทาง แต่ก็ไม่รู้ต้องทำอย่างไร
    ///
    ////// E C#m
    ////// อดใจไม่ไหวเมื่อได้พบหน้า ยิ่งเธอส่งยิ้มคืนมายิ่งหวั่นไหว
    ////// A F#m B
    ////// ยังเป็นอย่างนี้อยู่ทุกวัน ฉันต้องคอยหักห้ามใจ
    //////
    ///////// E C#m
    ///////// อดใจไม่ไหวทุกทีที่เจอ เพียงแค่แอบเผลอมองตาจะผิดไหม
    ///////// A F#m B E
    ///////// เก็บเอาไปฝันอยู่ทุกคืน ฉันต้องทำตัวเช่นไร ช่วยบอกได้ไหมเธอ

    โซโล่ - E/E/C#m/C#m/A/A/B/B/E/E/A/A/E/E/A/A
    ((อัพเดทคอร์ดกีต้าร์))
  • เดะๆ
    Guest
  • 18 ต.ค.2546,22:18น.
    อยากได้ tab โซโล่อ่าครับบบ 
  • คนน่า....
    Guest
  • 22 ต.ค.2546,21:16น.
    ดีค่ะ 
  • tos_guitarsiam
    Guest
  • 18 พ.ย.2546,02:54น.
    solo
    1-----------------------------------------------------------------------
    2-----------------------------------------------------------------------
    3-----------------------------------------------------------------4----
    4--x-x-4-6-4-6-4-6-4-6-4----x-x-4-6-4-6-4-6-4-6----------
    5-----------------------------------------------------------------------
    6-----------------------------------------------------------------------
    เล่น วนไปเรื่อยๆๆๆ
    ((อัพเดทคอร์ดกีต้าร์))
  • ม่ายรู้555
    Guest
  • 15 ม.ค.2547,18:03น.
    ขอบคุน555                     
  • งง
    Guest
  • 20 ม.ค.2547,20:22น.
    ท่อนแรกทำไงอะ งง
  • ......
    Guest
  • 23 ม.ค.2547,23:06น.
    โซโล่แค่นี้ต้องแกะด้วยเหรอ ง่ายจะตาย
  • Georgia
    Guest
  • 29 ม.ค.2547,20:50น.
       เพราพดีเพลงนี้                
  • Georgia
    Guest
  • 29 ม.ค.2547,20:51น.
       เพราะดีเพลงนี้                
  • คนอยากเล่นเพลงนี้
    Guest
  • 1 ก.พ.2547,15:45น.
    อยากได้ introครับ ขอบคุณครับที่ทำให้
  • ภัทร คับ
    Guest
  • 16 ก.พ.2547,18:48น.
    อยากได้ TAB ช่วงเเรกอ่ะคับ ช่วยทีนะคับ     
    ((ขอคอร์ดกีต้าร์))
  • นิรนาม
    Guest
  • 1 มี.ค.2547,15:59น.
    เครื่องหมาย /// คือไรครับผมไม่รู้ 
  • ขุนพลโต๊ะเล็ก
    Guest
  • 3 มี.ค.2547,09:17น.
    โคตรชอบเลย  
  • KUNG
    Guest
  • 24 มี.ค.2547,21:24น.
    สนุกมากกกกกกกกกกกกกกกกกกกกกกกกกกกก !  &  ชอบมากกกกกกกกกกกกกกกกกกกกกกกกกก  ! 
  • !!!!!!!!!!!
    Guest
  • 29 มี.ค.2547,01:57น.
    ถ้า+++คิดว่า+++เก่งนักแล้ว+++เข้ามาดูทำพ่อ+++เหรอ+++ก็ไปแกะเองดิ++++++
  • oh
    Guest
  • 26 เม.ย.2547,16:23น.
                    
  • Maximus
    Guest
  • 4 พ.ค.2547,13:48น.
    intro

    1------------------------------|-----------------------------------------
    2---------4----5---4----------|----------4----5----4----------------
    3----4------------------4-----|----4---------------------4------------
    4------------------------------|----------------------------------------
    5------------------------------|----------------------------------------
    6------------------------------|----------------------------------------


    1------------------------------|---------------------4------------------
    2---------4----5---4----------|---------4----7----------7^5^4----
    3----4------------------4-----|----4----------------------------------
    4------------------------------|----------------------------------------
    5------------------------------|----------------------------------------
    6------------------------------|----------------------------------------

  • birdมือใหม่[กลอง]
    Guest
  • 9 พ.ค.2547,14:57น.
    เออขอโทดทีนะคับช่วยส่งโนตกลองไปที่e-mail  i-zax521406@thailmail.comหน่อยนะคับมันจาเป็นพระคุณมากคับเพราะแกะไปแกะมามัวอ่ะคับ
  • คนจร
    Guest
  • 10 มิ.ย.2547,15:36น.
    inTro  หวั่นไหว
    1-------------0----------------|--------------------0---------------------
    2------------------------------|-----------------------------------------
    3------------------------------|-----------------------------------------
    4---------8--------8----------|--------------8----------8----------------
    5-----9-----------------9-----|---------9-------------------9-----------
    6------------------------------|----------------------------------------


    1--------------0--------------|----------------------------------------
    2------------------------------|-------------7--------9------------------
    3------------------------------|---------------------------8---9--------
    4----------8-------8----------|--------8--------------------------------
    5------9---------------9------|----9------------------------------------
    6------------------------------|----------------------------------------

    ถ้าเกะผิดก็อย่าว่ากันน๊า
    ((อัพเดทคอร์ดกีต้าร์))
  • เด็กหงษ์
    Guest
  • 11 ก.ค.2547,17:12น.
    1---------------------------------------I-------------------------------------------
    2---------------------4--5--4--------I---------------------4--5---4----------
    3------2-----2/4----------------4--I--------2---2/4-------------------4-----

    1---------------------------------------I-------------------------------------
    2---------------------4--5--4--------I---------------------4--5-----------
    3------2-----2/4----------------4--I--------2---2/4-------------------

    ชัวว์
    ((อัพเดทคอร์ดกีต้าร์))
  • เด็กอุดิต an
    Guest
  • 16 ก.ค.2547,15:59น.
    ขอบคุณครับที่แกะให้  ผมชอบมาเลย 
  • Andy วง<---KeeP-->
    Guest
  • 19 ก.ค.2547,14:10น.
    เยี่ยมเลย
    ((ขอคอร์ดกีต้าร์))
  • Bo_yS
    Guest
  • 20 ก.ค.2547,12:27น.
    Intro  หวั่นไหว
    1------------------------------|------------------------------------
    2------------------------------|------------------------------------
    3----------9-10-9-----------|----------9-10-9-----------------
    4--9~10---------10--------|--9~10---------10--------------
    5------------------------------|------------------------------------
    6------------------------------|------------------------------------


    1------------------------------|------------------------------------
    2------------------------------|---------------------10-----------
    3----------9-10-9-----------|--------------9-12-----12-------
    4--9~10---------10--------|--9~10--------------------------
    5------------------------------|-----------------------------------
    6------------------------------|-----------------------------------

    key E

    น่าจะ OK
    ((อัพเดทคอร์ดกีต้าร์))
  • เสี่ยว_Black
    Guest
  • 5 ส.ค.2547,17:26น.
    ผมว่าคับของคุณเด็กหงษ์ เหมือนมากกว่าเเต่ลืมตัวสุดท้าย 1ตัวคับ คือ โน๊ตตัว A คับ
  • serwetery
    Guest
  • 5 ส.ค.2547,19:16น.
    fghfgdfigeriugerutioeruteriotvueioterioebetvtvoeyierytoierbyietierytberytb9eriytpebyweptytye
  • เด็กผักไห่ วงwinning
    Guest
  • 14 ก.ย.2547,10:35น.
    ทุกคนเก่งมาก ขอให้พยายามแกะเพลงกันต่อไป   ผมว่าเราควรแกะเพลงในคีโน้ตตัวนั้นถ้าไม่เข้าใจ
    e-mialมาที่ผมให้ เพื่อแลกเปลี่ยนความรู้กัน จากเด็ก ผักไห่ "สุทธาประมุข"
  • TurtleAuXio
    Guest
  • 20 ก.ย.2547,20:27น.
    ใครก้อได้ โพสแทปกลองหน่อยค้าบ ขอบคุน
  • แหลม
    Guest
  • 21 ก.ย.2547,01:08น.
    มี Line Bass บ้างไหมค๊ะ ท่อน Solo     Bass เล่นอย่างไงค๊ะฟังไม่รู้เรื่องเสียงมันเพี้ยนๆ

ขอเชิญร่วมแสดงความคิดเห็นครับ

คลิกที่รูป เพื่อแทรกรูปลงในข้อความ
  • Member :
    username
    password
  • Not a member :
    name
    email