Loading

เพลง หาย

เกียร์(Klear)

อัพโหลดคลิปเพลงนี้ที่คุณ ร้อง/เล่น ด้วยตัวคุณเอง ได้แล้ววันนี้
ระหว่างการทดสอบระบบหากพบข้อผิดพลาด กรุณาแจ้งที่นี่
เพลง : หาย 
ศิลปิน : Klear
อัลบั้ม : Stay Alive
เพลงประกอบภาพยนต์ รัก สาม เศร้า

-----------------------------------------------------------------------------------------
Intro / G / C / G / C

G C G C G C G C
กลับมาที่ห้องเดิม เปิดเพลงซ้ำๆ เดิมๆ อยู่อย่างนั้น ภาพเราที่มีกัน ยังคงชัดเจน
G C G C G C G C
นั่งมองที่เตียงเก่า ยิ่งมองยิ่งเหงาจนใจเริ่มหวั่นไหว ภาพเธอข้างๆกาย ไม่มีแล้วใจ
G C G C
* หาย มันเหงาจนแทบจะทนไม่ไหว เมื่อฉันและเธอต้องไกล
Em D C
ความรักยังเต็มในใจ และแม้จะนานเพียงใด แต่ฉันก็ยังจะมีเพียงเธอ (แต่ฉันก็ยังจะมีเพียงใจ)

Solo G / C / G / C (2 Times)

Em D Bm C D
เมื่อฉันและเธอต้องไกล ความเหงามันเต็มในใจ และแม้จะนานเพียงใด แต่ฉันก็ยังจะมีเพียงเธอ

( ซ้ำ * , * )

Solo / G / C / G / C / (2 Times)

G C G C G
หาย
ดาวน์โหลด Full Song
กด *424243102656584
กด *424243102656584
ดาวน์โหลด Truetone
กด *424218102656584
กด *424218102656584
กด *424218102656584
ดาวน์โหลด Poly
กด *424214102656584
กด *424214102656584
กด *424214102656584
ดาวน์โหลด Mono
กด *424211102656584
กด *424211102656584
กด *424211102656584
* อัตราค่าบริการดาวน์โหลด Fullsong, Truetone, Poly, Mono : 35 บาท/เพลง
ส่งเพลงนี้ให้เพื่อน
วันที่โพสต์ : 22 ม.ค.2551,23:38น. 222.123.172.214
จำนวนผู้ชม : 162693 คน / แสดงความคิดเห็น : 57 ครั้ง
โพสต์โดย


จาก: แม็ค
เข้าร่วม: 7 ปีก่อน
เพลง: 0
โพสต์: 20
เพลงแนะนำ
เพลงฮิต
ผู้สนับสนุน
เลือกแสดงเฉพาะ :

  • Chibiasa
    Guest
  • 23 ม.ค.2551,22:42น. 58.9.196.28
    Thankz มากๆ ชอบมากมายเลยเพลงนี้
  • PzLy~
    Guest
  • 23 ม.ค.2551,23:36น. 117.47.32.43
    thx คร๊าบบบบบบบ

    ชอบบบบบบบบบบบบบบบบบบบบ

    อิอิ
  • WelloM
    Guest
  • 24 ม.ค.2551,15:56น. 118.172.19.188
    เพลงนี้กินใจเลยง่า
  • เศษทราย
    Guest
  • 25 ม.ค.2551,19:52น. 124.121.38.158
    ชอบเพลงนี้สุดๆๆๆๆๆ
  • ฟหกด
    Guest
  • 30 ม.ค.2551,11:32น. 125.24.183.208
    เคลียร์ นะ ไม่ใช่ เกียร์รถ
  • pui
    Guest
  • 2 ก.พ.2551,21:25น. 203.155.228.20
    อืมใช่ เคลียร์ไม่ใช่เกียร์ แต่ก็ขอบใจนะ
  • n n
    Guest
  • 3 ก.พ.2551,10:18น. 158.108.212.59
    เพราะมั่กๆๆๆ
  • 3 ก.พ.2551,21:00น. 58.9.105.59
    วงเคลียร์นะคับ เพลงนี้เพราะมากเพราะทั้งอัลบั้มเลยแหละเปนวงผู้หญิงวงแรกที่ผมชอบเลยชอบทั้งเพลงชอบทั้งคนร้องฮิฮิ
  • BOM-B.P.
    Guest
  • 6 ก.พ.2551,00:26น. 203.113.36.6
    ขอคอร์ดด่วนเลยคับเพลงมานเพราะมากๆๆๆๆๆๆๆๆๆๆๆๆๆๆๆๆๆๆๆๆๆๆๆๆๆๆๆๆ
  • 4444
    Guest
  • 7 ก.พ.2551,10:56น. 58.9.109.205
    คอร์ดไม่ยากมือไหม่อย่างเราเล่นสบายๆๆเลย
  • 8 ก.พ.2551,21:37น. 202.149.24.129
    Intro / Gsus4 / Css / Gsus4 / Css 

    Gsus4 Css Gsus4 Css Gsus4 Css Gsus4 Css
    กลับมาที่ห้องเดิม เปิดเพลงซ้ำๆ เดิมๆ อยู่อย่างนั้น ภาพเราที่มีกัน ยังคงชัดเจน
    Gsus4 Css Gsus4 Css Gsus4 Css Gsus4 Css
    นั่งมองที่เตียงเก่า ยิ่งมองยิ่งเหงาจนใจเริ่มหวั่นไหว ภาพเธอข้างๆกาย ไม่มีแล้วใจ
    Gsus4 Css Gsus4 Css
    * หาย มันเหงาจนแทบจะทนไม่ไหว เมื่อฉันและเธอต้องไกล
    Emss Dsus4 Css
    ความรักยังเต็มในใจ และแม้จะนานเพียงใด แต่ฉันก็ยังจะมีเพียงเธอ (แต่ฉันก็ยังจะมีเพียงใจ)

    Solo Gsus4 / Css / Gsus4 / Css (2 Times)

    Emss Css Emss Css Dsus4
    เมื่อฉันและเธอต้องไกล ความเหงามันเต็มในใจ และแม้จะนานเพียงใด แต่ฉันก็ยังจะมีเพียงเธอ

    ( ซ้ำ * , * )

    Solo Gsus4 / Css / Gsus4 / Css (2 Times)

    Gsus4....................... .คิดว่าน่าจาใช้ได้น้า*0*ใครมีอาไรดีๆก็ post กานมางเน้อ
    หาย

    ป.ล. ไอ้ Css กะ Emss เนี่ย..ไม่รู้เรียกว่าอาไรแต่มันกดแบบเนี่ย.........

    Emss

    1>---------3-------------------------------------------
    2>---------3-------------------------------------------
    3>----------------------------------------------------
    4>-------2---------------------------------------------
    5>-------2---------------------------------------------

    Css

    1>-----------3-----------------------------------------
    2>-----------3-----------------------------------------
    3>----------------------------------------------------
    4>------2----------------------------------------------
    5>-----------3-----------------------------------------

    Gsus4

    1>------------3----------------------------------------
    2>------------3----------------------------------------
    3>----------------------------------------------------
    4>----------------------------------------------------
    5>--------2--------------------------------------------
    6>------------3----------------------------------------
  • banklinkup
    Guest
  • 9 ก.พ.2551,23:34น. 124.121.41.154
    เพลงเพราะมากๆ ฟังแล้วน้ำตาแทบไหล ฟังทุกคืนเลย
  • โด๊ส
    Guest
  • 15 ก.พ.2551,19:22น. 125.25.253.204
    นายๆๆ

    Css

    1>-----------3-----------------------------------------
    2>-----------3-----------------------------------------
    3>----------------------------------------------------
    4>------2----------------------------------------------
    5>-----------3-----------------------------------------

    Gsus4

    1>------------3----------------------------------------
    2>------------3----------------------------------------
    3>----------------------------------------------------
    4>----------------------------------------------------
    5>--------2--------------------------------------------
    6>------------3----------------------------------------
    มันตัวเดียวกานเหรอ
  • โด๊ส
    Guest
  • 15 ก.พ.2551,19:23น. 125.25.253.204
    Sorry my mistake

    ถูกแล้วนี่หว่า โทษนะ
  • ไบโอ->NS
    Guest
  • 17 ก.พ.2551,00:40น. 202.149.24.129
    คนละตัวคร้าบ......ต่างที่สาย
  • o
    Guest
  • 25 ก.พ.2551,22:51น. 124.120.14.156


    ---------------------------3--1-----5------------------------------------------------------------------------------5--6-----------1---------------------------------------------------------------------------------------------------------------------------------------------------------------------------------------------------------------------------------------------------------------------------------------------------------------------------------------------------------------------------------------------------------------------------------------------------------------------------------------------------------------------------------------------------------
  • ช้าไปเปล่า
    Guest
  • 26 ก.พ.2551,23:53น. 58.8.121.174
    โด๊ส 125.25.253.204 [ วันศุกร์ ที่ 15 กุมภาพันธ์ 2551 เวลา 19:22 น. ] [ x ] ผู้ตอบคนที่ 16
    นายๆๆ

    Css

    1>-----------3-----------------------------------------
    2>-----------3-----------------------------------------
    3>----------------------------------------------------
    4>------2----------------------------------------------
    5>-----------3-----------------------------------------

    Gsus4

    1>------------3----------------------------------------
    2>------------3----------------------------------------
    3>----------------------------------------------------
    4>----------------------------------------------------
    5>--------2--------------------------------------------
    6>------------3----------------------------------------
    มันตัวเดียวกานเหรอ
    =============================

    คนละตัวครับ

    Css ที่คุณ " ไบโอ --->NS " ว่า มันจับสาย 1 2 4 5
    ่ส่วย Gsus4 จับ สาย 1 2 5 6
  • ช้าไปจิง>.<
    Guest
  • 26 ก.พ.2551,23:54น. 58.8.121.174
    คือเพลงนี้ ทั้งเพลงมันจะมีเสียง

    1>-----------3-----------------------------------------
    2>-----------3-----------------------------------------
    3>-----------------------------------------------------
    4>-----------------------------------------------------
    5>-----------------------------------------------------
    6>-----------------------------------------------------


    ตลอดเกือบทั้งเพลงเลย ใช่มะคับ
  • 27 ก.พ.2551,15:55น. 222.123.233.231
    Cadd9      032033
    Gadd12 320033
    Em7 022033
    Dsus4 000233

    ============================================================
    Intro / G / C / G / C

    G C G C G C G C
    กลับมาที่ห้องเดิม เปิดเพลงซ้ำๆ เดิมๆ อยู่อย่างนั้น ภาพเราที่มีกัน ยังคงชัดเจน
    G C G C G C G C
    นั่งมองที่เตียงเก่า ยิ่งมองยิ่งเหงาจนใจเริ่มหวั่นไหว ภาพเธอข้างๆกาย ไม่มีแล้วใจ
    G C G C
    * หาย มันเหงาจนแทบจะทนไม่ไหว เมื่อฉันและเธอต้องไกล
    Em D C
    ความรักยังเต็มในใจ และแม้จะนานเพียงใด แต่ฉันก็ยังจะมีเพียงเธอ (แต่ฉันก็ยังจะมีเพียงใจ)

    Solo G / C / G / C (2 Times)

    Em D Bm C D
    เมื่อฉันและเธอต้องไกล ความเหงามันเต็มในใจ และแม้จะนานเพียงใด แต่ฉันก็ยังจะมีเพียงเธอ

    ( ซ้ำ * , * )

    Solo / G / C / G / C / (2 Times)

    G C G C G
    หาย

    =======================================================
    Cadd9 032033 ; ก็คือ สาย6เปล่า สาย5เฟต3 สาย4เฟต2 สาย3เปล่า สาย1กับ2เฟต3
    Gadd12 320033
    Em7 022033
    Dsus4 000233
    เปลี่ยน C G Em D ให้เป็นครอดข้างบนนี่หมดเลยคับ

    ลองดูน้าคิดว่าตรง

  • ...
    Guest
  • 1 มี.ค.2551,13:22น. 125.26.81.109
    ขอท่อน โซโล่ เบส หน่อยงับ
  • /
    Guest
  • 8 มี.ค.2551,09:59น. 202.91.19.204
    ทอนโซโล่เพราะดี
  • Min
    Guest
  • 10 มี.ค.2551,20:29น. 58.64.103.133
    เค้าเรียกว่า C5 กับ G5 ครับ
  • lll
    Guest
  • 12 มี.ค.2551,21:43น. 117.47.64.193
    Intro / G / C / G / C 

    G C G C G C G C
    กลับมาที่ห้องเดิม เปิดเพลงซ้ำๆ เดิมๆ อยู่อย่างนั้น ภาพเราที่มีกัน ยังคงชัดเจน
    G C G C G C G C
    นั่งมองที่เตียงเก่า ยิ่งมองยิ่งเหงาจนใจเริ่มหวั่นไหว ภาพเธอข้างๆกาย ไม่มีแล้วใจ
    G C G C
    * หาย มันเหงาจนแทบจะทนไม่ไหว เมื่อฉันและเธอต้องไกล
    Em D C
    ความรักยังเต็มในใจ และแม้จะนานเพียงใด แต่ฉันก็ยังจะมีเพียงเธอ (แต่ฉันก็ยังจะมีเพียงใจ)

    Solo G / C / G / C (2 Times)

    Em D Bm C D
    เมื่อฉันและเธอต้องไกล ความเหงามันเต็มในใจ และแม้จะนานเพียงใด แต่ฉันก็ยังจะมีเพียงเธอ

    ( ซ้ำ * , * )

    Solo / G / C / G / C / (2 Times)

    G C G C G
    หาย
  • 22 มี.ค.2551,11:12น. 125.24.3.217
    อิอิ ได้ความรู้ดีครับเพลงนี้แล้วตกลงมันใช้คอร์ดไรแน่แล้วมันชื่อคอร์ดไรแต่ Css มันไม่มีในตำรานิครับอิอิ ความรู้ๆ ((ขอคอร์ดกีต้าร์))
  • Noei
    Guest
  • 5 เม.ย.2551,17:15น. 124.120.212.234
    อ่านแท็บไม่เปนอ่ะ

    ใครอ่านเปนช่วยสอนหน่อยค่ะ
1

ขอเชิญร่วมแสดงความคิดเห็นครับ

คลิกที่รูป เพื่อแทรกรูปลงในข้อความ
  • Member :
    username
    password
  • Not a member :
    name
    email