Loading

เพลง เขียนไว้บนหน้าผาก

ไอน้ำ (ไอ..น้ำ)

อัพโหลดคลิปเพลงนี้ที่คุณ ร้อง/เล่น ด้วยตัวคุณเอง ได้แล้ววันนี้
ระหว่างการทดสอบระบบหากพบข้อผิดพลาด กรุณาแจ้งที่นี่
Intro:Eb Bb / Eb F Cm Bb
Bb/Dm Gm/F /Eb Dm/F
Bb Eb F Bb
ยังมีหน้ามาเจ็บอีกรึไง เจ็บมาแล้วตั้งเท่าไร่ ไม่จำ
Dm Gm
มีบทเรียนมากี่หน ถูกคนสวยเขาทำ
Bb F
แค่เขาเห็นเราซื่อดีเลยคบไป
Bb Eb F Bb
เธอจะชอบอะไรเรา โง่จริง เพิ่งจะทิ้งเราก็ดีเท่าไร
Dm Gm
มองที่กระจกเงา ส่องดูให้เข้าใจ
Bb F
เลิกหวังว่าใครจะมาจริงจังได้แล้ว
Bb Dm Gm F Eb Dm Cm
*<font color=red>+++</font>หน้าอย่างเรา ใครเขาจะมารัก เขียนเอาไว้บนหน้าผาก ให้เตือนตัวเองเอาไว้
Bb D Gm Cm F Bb
ต้องโทษที่เรามันรักจนลืมตัวหมดหัวใจ ไม่ต้องโทษใครๆ ก็หน้าโง่ๆอย่างเราไปรักเอง
Bb Eb F Bb
ต่อจากนี้ควรจะลาเสียที ต่อไปนี้ควรจะบอกหัวใจ
Dm Gm
มองไปที่กระจกนี้ ก่อนที่จะทุ่มไป
Bb F
เลิกหวังว่าใครจะมาจริงจังได้แล้ว *

Solo: Eb / Dm Gm / Cm / F

*
Eb F Bb
อยากหน้าโง่ทำใม ก็ช้ำเอง
ส่งเพลงนี้ให้เพื่อน
วันที่โพสต์ : 24 ต.ค.2547,23:24น.
จำนวนผู้ชม : 110965 คน / แสดงความคิดเห็น : 150 ครั้ง
โพสต์โดย


จาก: ที
Guest
เพลงแนะนำ
เพลงฮิต
เลือกแสดงเฉพาะ :

  • 12345
    Guest
  • 25 ต.ค.2547,10:21น.
    ALBUM INFO :
    ศิลปิน : ไอ..น้ำ
    อัลบั้ม : รักคนมีเจ้าของ
    แนวเพลง : ป็อปร็อค
    เอ็กเซ็กคิวทีฟ โปรดิวเซอร์ : สุทธิพงษ์ วัฒนจัง
    โปรดิวเซอร์ : พีระศักดิ์ ทัศนวรานนท์
    สังกัด : Melodiga
    วางแผง : 23 กันยายน 2547
  • ไก่
    Guest
  • 25 ต.ค.2547,10:28น.
    Intro
    1)----------------------------------------------------------------------------
    2)----------------------------------------------------------------------------
    3)--------------------8/10---10/12--8----12-12-10-10-10---------
    4)--8^10--8^10--8/10---10/12--8-----8---8---8--10--8---------
    5)--8^10--8^10----------------------------------------------------------
    6)----------------------------------------------------------------------------

    1)-------------------------13------------------------------------------------------------18------
    2)---------11--13--13*----13--10--11----16*-15*(15)-13--15-----18--18*----18--
    3)----/10------------------------------------------------------------------------------------------
    4)--------------------------------------------------------------------------------------------------
    5)---------------------------------------------------------------------------------------------------
    6)---------------------------------------------------------------------------------------------------

    1)----------------------------------------------------
    2)--15*(15)-13-11--------------------------------
    3)---------------------------10--10/12--10-----
    4)----------------------13-------------------------
    5)----------------------------------------------------
    6)---------------------------------------------------

    Solo
    1)----------------13--------------------------------------------------------------
    2)---13*---13*-------13*(13)--11--13----11--13*--13---11-10-11--
    3)---------------------------------------------------------------------------------
    4)-------------------------------------------------------------------------------
    5)---------------------------------------------------------------------------------
    6)--------------------------------------------------------------------------------

    1)-------------------11^10------------------------------------13--13/15-15--13--13-
    2)-----------10-11---------11---------------11-13-13/15------------------------------
    3)---10-12---------------------12--10^12-----------------------------------------------
    4)---------------------------------------------------------------------------------------------
    5)---------------------------------------------------------------------------------------------
    6)---------------------------------------------------------------------------------------------

    1)---17-17-(20)(17)--------
    2)-------------------------------
    3)-------------------------------
    4)-------------------------------
    5)-------------------------------
    6)-------------------------------
  • เด็กชลบุรี
    Guest
  • 25 ต.ค.2547,15:22น.
                                                   แก้ไขหน่อยครับ
    เขียนไว้บนหน้าผาก

    Artist : ไอ..น้ำ (ไอน้ำ)

    Intro:Eb Bb / Eb F Cm Bb
    Bb/Dm Gm/F /Eb Dm/F
    Bb Eb F Bb
    ยังมีหน้ามาเจ็บอีกรึไง เจ็บมาแล้วตั้งเท่าไร่ ไม่จำ
    Dm Gm
    มีบทเรียนมากี่หน ถูกคนสวยเขาทำ
    Cm C Fsus4
    แค่เขาเห็นเราซื่อดีเลยคบไป
    Bb Eb F Bb
    เธอจะชอบอะไรเรา โง่จริง เพิ่งจะทิ้งเราก็ดีเท่าไร
    Dm Gm C
    มองที่กระจกเงา ส่องดูให้เข้าใจ
    Cm F
    เลิกหวังว่าใครจะมาจริงจังได้แล้ว
    Bb Dm Gm F Eb Dm Cm F
    *..หน้าอย่างเรา ใครเขาจะมารัก เขียนเอาไว้บนหน้าผาก ให้เตือนตัวเองเอาไว้
    Bb D Gm C Cm Eb Bb
    ต้องโทษที่เรา มันรักจนลืมตัวหมดหัวใจ ไม่ต้องโทษใครๆ ก็หน้าโง่ๆอย่างเราไปรักเอง
    Bb Eb F Bb
    ต่อจากนี้ควรจะลาเสียที ต่อไปนี้ควรจะบอกหัวใจ
    Dm D Gm C
    มองดูที่กระจกนี้ ก่อนที่จะทุ่มไป
    Cm F
    เลิกหวังว่าใครจะมาจริงจังได้แล้ว
    *

    Solo: Eb / Dm Gm / Cm / F

    *
    Cm F Bb
    อยากหน้าโง่ทำใม ก็ช้ำเอง




  • กทม.
    Guest
  • 25 ต.ค.2547,15:41น.
    เจ็ง!
    ((ขอคอร์ดกีต้าร์))
  • ขี้สงสัย
    Guest
  • 25 ต.ค.2547,19:42น.
    คอร์ด Eb กดไงอะครับ - -a
  • กิ๊ก Mrq
    Guest
  • 25 ต.ค.2547,20:00น.
    จับเหมือน D แต่ไป ช่อง3 อ่ะ  คอร์ด ย่อ น่ะ
  • ......................
    Guest
  • 25 ต.ค.2547,22:06น.
    ขอวิธีจับคอร์ดCmอ่าคับ
  • Technic_ub
    Guest
  • 26 ต.ค.2547,11:10น.
    คอร์ Cm จับแบบ Bm แต่แลื่อนไปช่อง 3 ครับ
  • โบว์
    Guest
  • 26 ต.ค.2547,15:24น.
    ตรงกับชีวิตใครในวงรึเปล่า.......บอกหน่อยได้มั้ย      

    ( ชอบมากเลย )
  • ต้น
    Guest
  • 26 ต.ค.2547,21:04น.
    มีtabด้วย เยี่ยม!
  • คนน่ารัก
    Guest
  • 27 ต.ค.2547,08:28น.
    เนื้อหาสนุกดี ตรงใจคนอ่านมากเลยนะค่ะ
  • เด็กซน
    Guest
  • 27 ต.ค.2547,11:02น.
    ดีมากเลยตรงใจค่ะ
  • คนหน้าโง่
    Guest
  • 27 ต.ค.2547,12:19น.
    ชอบมากๆเลย ฟังแล้วมันโดนนนน... 
  • อาร์ม
    Guest
  • 27 ต.ค.2547,14:10น.
    โดน! 
  • แบงค์
    Guest
  • 27 ต.ค.2547,20:39น.
    สุดยอด เราชอบตอนจบของเพลง ที่มีคนพูดกับพระเอกMusicว่า ... นะ 
  • นินจา ราตรี
    Guest
  • 28 ต.ค.2547,14:13น.
    ดี บอกว่าดี ก้อดี อ่ะ 
  • AngelZX
    Guest
  • 28 ต.ค.2547,18:54น.
    โดนเต็มๆเลยคับ 
  • MooHaM
    Guest
  • 29 ต.ค.2547,15:37น.
    ขอคอร์ดตรงIntroหน่อยสิคับ ใช่อันนี้หรอมันงงๆ
  • ss
    Guest
  • 29 ต.ค.2547,21:35น.
    สัญลักษญ์แทปอาไรอ่ะคับอ่านมะออก   บอกหน่อยงับ ผมพึ่งเข้า
  • ewnugf3n
    Guest
  • 30 ต.ค.2547,07:45น.
    cccccccccccccccccccccccccccccccccccccccccccccccccccccccccccccccccccccccccccccccccccccccccccccccccccccccccccccccccccccccccccccccccccccccccccccccccccccccccccccccccccccccccccccccccccccccccccccccccccccccccccccccccccccccccccccccccccccccccccccccccccccccccccccccccccccccccccccccccccccccccccccccccccccccccccccccccccccccccccccccccccccccccccccccccccccccccccccccccccccccccccccccccccccccccccccccccccccccccccccccccccccccccccccccccccccccccccccccccccccccccccccccccccccccccccccccccccccccccccccccccccccccccccccccccccccccccccccccccccccccccccccccccccccccccccccccccccccccccccccccccccccccccccccccccccccccccccccccccccccccccccccccccccccccccccccccccccccccccccccccccccccccccccccccccccccccccccccccccccccccccccccccccccccccccccccccccccccccccccccccccccccccccccccccccccccccccccccccccccccccccccccccccccccccccccccccccccccccccccccccccccccccccccccccccccccccccccccccccccccccccccccccccccccccccccccccccccccccccccccccccccccccccccccccccccccccccccccccccccccccccccccccccccccccccccccccccccccccccccccccc
    ((ขอคอร์ดกีต้าร์))
  • O.X TEAM
    Guest
  • 30 ต.ค.2547,12:08น.
    ขอบคุณครับพี่ๆวงไอนำที่แต่งเพลงนี้ให้กับโต้ง  O.X. TEAM 
  • อาร์ท
    Guest
  • 30 ต.ค.2547,15:13น.
    ก็ดีนะคับแบบว่าโดนใจสุดๆ           
  • CKYO
    Guest
  • 30 ต.ค.2547,20:03น.
    ผมพึ่งหัดโซโลไม่เข้าใจสัญลักษณ์อธิบายหน่อย   
  • คนโง่ที่ไปรัก..................?
    Guest
  • 31 ต.ค.2547,01:18น.
    เพลงนี้เหมือนชีวิตผมเลยครับ
  • ........
    Guest
  • 31 ต.ค.2547,09:54น.
             
  • คนชอบฟังเพลง
    Guest
  • 31 ต.ค.2547,12:53น.
    อยากได้คอร์ดแบบจริงๆๆอ่ะครับ
    ((ขอคอร์ดกีต้าร์))
  • นักล่าฝัน
    Guest
  • 31 ต.ค.2547,16:01น.
    อันนิ้  13*----ที่มีเครื่องหมาย*หมายความว่าอย่างไรครับ
  • บี ด.ม.จ.
    Guest
  • 1 พ.ย.2547,15:53น.

    เพลงนี้โดนใจมากเพราะเราโง่เหมือนในเพลง
  • ร.ส.ท. 1/4
    Guest
  • 1 พ.ย.2547,18:09น.
    โดนใจมากเลย   
  • มิว เด็กศรีสัช
    Guest
  • 2 พ.ย.2547,11:30น.
     ตรงกับใจ.........เลย 
    สุดยอด ..........มากๆๆๆๆๆๆๆๆๆๆ

ขอเชิญร่วมแสดงความคิดเห็นครับ

คลิกที่รูป เพื่อแทรกรูปลงในข้อความ
  • Member :
    username
    password
  • Not a member :
    name
    email