Loading

ŧ ˭ԧԷ

Ū (Clash)

ѾŴԻŧس ͧ/ µǤسͧ ѹ
ҧ÷ͺкҡͼԴҴ س駷
Print


>> ź : One
Intro : Bm/C#m/F#m/D/E/F#m

Bm C#m F#m
ͧ蹹ҹ 繵;Ѻ
D E F#m
͹
Bm C#m F#m
ѹ Ѻ
G E
㨨ѡ͵ʹ

Bm C#m F#m
* ѹ ͹šѹʹ
D E F#m
Ҿ
Bm C#m F#m
ͧ͢ҧ ˹ѡ˹
D E A
֧Ҩҹ

F#m C#m F#m C#m
** 觵蹢 ͹ ѹͺͧҹ
F#m C#7/F#m D E
ѹҾ 仹͹ѹ ѹͺ͡ѡ

Bm C#m F#m D E F#m
*** Ҩ Ҩúǹ § ͧ
Bm C#m F#m D E A
Թҧ ѹͧ ѹ ѹѡ§

Instru : F#m/C#m/ (3times)
D/E

[ * , ** , *** ]

Bm C#m F#m
Թҧ ѹͧ
D E A
ѹ ѹѡ§


http://www.musicatm.com/thai/ŧ-˭ԧԷ-Ū-(Clash)-77.html
ŧ͹
ѹʵ : 4 ..2546,17:33.
ӹǹ : 158304 / ʴԴ : 82
ʵ


ҡ: ʫ
: 9 ա͹
ŧ: 0
ʵ: 218
ŧй
ŧԵ
  • up
    1.
    ʵ (Stamp)
    ѧŧ
  • up
    2.
    ͡ (Cocktail)
    ѧŧ
  • up
    3.
    Ըҹ (The Voice)
    ѧŧ
  • up
    4.
    ʹ (Bodyslam Feat. Labanoon)
    ѧŧ
  • up
    5.
    Ż
    ѧŧ
͡ʴ੾ :

  • fang
    Guest
  • 12 ..2547,17:25.
    ʹءҡ        
    ((յ))
  • tomman
    Guest
  • 16 ..2547,13:01.
    ҡ 
    ((Ѿഷ觷ͧѧ))
  • duck
    Guest
  • 22 ..2547,15:59.
    ⴹش           
  • superx
    Guest
  • 14 ..2547,23:53.
    ҡ tab ŧФѺ شǤФѺ
  • ...
    Guest
  • 16 ..2547,23:46.
    ᷺¤Ѻǹ
  • imax
    Guest
  • 21 ..2547,10:47.
    ᷺͹ҹ 
  • 1234
    Guest
  • 28 ..2547,08:16.
    intro 
  • xXx
    Guest
  • 12 ..2547,12:37.
    intro solo ҡҡ    
  • Όầ
    Guest
  • 29 ..2547,15:05.
    ҡЪͺҡ

  • Guest
  • 14 ..2547,22:16.
    solo¤Ѻ 
  • @@@
    Guest
  • 29 ..2547,17:38.
    @@@@@   
    ((Ѿഷ觷ͧѧ)) ((Ѿഷյ)) ((յ))
  • tah
    Guest
  • 10 ..2547,09:03.
     tab ˹
    ((Ѿഷ觷ͧѧ)) ((Ѿഷյ)) ((յ))
  • krich
    Guest
  • 3 ..2547,18:45.
    Сͧŧŧ§͹ ͺس ǧclash  
    ((Ѿഷ觷ͧѧ)) ((Ѿഷյ)) ((յ))
  • Guitar man
    Guest
  • 18 ..2548,21:25.
    ͧѺҧЧѺ ͧԴŧд ѧЧѺ ͹ ͹йЧѺ  ǵç͹鹷͹ؤ
    5/-------0-------------------
    6/---------4--2------------
    մẺǵ F#m ЧѺ ŧҡЧѺ Ѻյͤʵԡ
  • ҧ4/1 ..
    Guest
  • 22 ..2548,15:33.
    SOLOѺ Դͷ ҧ 4/1 ...

  • Guest
  • 15 ..2548,15:06.
    solo˹¤Ѻ
    tap¡դѺ
    ͺسѺ
  • ·դѺ
    Guest
  • 22 ..2548,16:40.
    ФѺ Ѵ   ǹդѺ
  • ͡յAngel
    Guest
  • 24 ..2548,21:51.
    Intro:
    2]-----------------------------10------9-------------------------------------------------------------
    3]-----------------------------------------------11-------9-------7--------6-------7>9--->----11
    4]-------------9------11-----------------------------------------------------------------------------



    ͧٹШ Ҩ͹
    ç˹¹ФѺ
  • к͡ ~^^~
    Guest
  • 26 ..2548,01:45.
    Intro:
    1)------------------------------------------------------------------------
    2)------------------10/12-----10----7----5-------------------12~-
    3)--------9/11-----------------------------------7----9/11----------

    Ҩ໧觧ҤѺ /=Slide ~=Vibrato

  • Guest
  • 18 ..2548,00:05.
    ҹ᷺Ẻѧ   Ѿ
  • Moon
    Guest
  • 3 ..2548,14:48.
    Intro:
    Bm7 C#m7 F#m
    1------------------------2-- -------------- ----
    2--3----------3------------ 5---------5-- 2--
    3--2------2---------------- 4------4----- 2--
    4------4------------4------ ----6--------- ----
    5--2----------------------- 4------------- 4--
    6---------------------------- -------------- ----

    enough
  • ѡŪ
    Guest
  • 14 ..2548,10:48.
    ͺŧҡѡầ  
    ((յ))
  • Όѹ
    Guest
  • 17 ..2548,14:41.
    ͺŧ (¨) ..  

    ͹͹ ѡѹ ͡ѹá

    ѡҡ Դ֧ҡ very love
  • ͧյѴ
    Guest
  • 24 ..2549,11:44.
    --------------------8--------7---------6----------5-----------4-----3-----2-------1---0
  • ô
    Guest
  • 17 ..2549,14:44.
    ầ  ͧ  55555555
  • ͻ
    Guest
  • 17 ..2549,14:48.
     ầ ˹͹ ԧ  ѧѴҧҵ  ҡ仴 .û.ᾧʹ
  • plon
    Guest
  • 27 ..2549,00:52.
    Intro:
    Bm7 C#m7 F#m
    1------------------------2-- -------------- ----
    2--3----------3------------ 5---------5-- 2--
    3--2------2---------------- 4------4----- 2--
    4------4------------4------ ----6--------- ----
    5--2----------------------- 4------------- 4--
    6---------------------------- -------------- ----

    ѧ
  • hh
    Guest
  • 6 ..2549,17:09.
    >> ŧ : >> ŻԹ :  
    >> ź : One
    Intro : Bm/C#m/F#m/D/E/F#m

    Bm C#m F#m
    ͧ蹹ҹ 繵;Ѻ
    D E F#m
    ͹
    Bm C#m F#m
    ѹ Ѻ
    G E
    㨨ѡ͵ʹ

    Bm C#m F#m
    * ѹ ͹šѹʹ
    D E F#m
    Ҿ
    Bm C#m F#m
    ͧ͢ҧ ˹ѡ˹
    D E A
    ֧Ҩҹ

    F#m C#m F#m C#m
    ** 觵蹢 ͹ ѹͺͧҹ
    F#m C#7/F#m D E
    ѹҾ 仹͹ѹ ѹͺ͡ѡ

    Bm C#m F#m D E F#m
    *** Ҩ Ҩúǹ § ͧ
    Bm C#m F#m D E A
    Թҧ ѹͧ ѹ ѹѡ§

    Instru : F#m/C#m/ (3times)
    D/E

    [ * , ** , *** ]

    Bm C#m F#m
    Թҧ ѹͧ
    D E A
    ѹ ѹѡ§
  • ͡յ ǧ frozen
    Guest
  • 11 ..2549,08:26.
    ẺǤ˹¤Ѻ 

ԭʴԴ繤Ѻ

ԡٻ áٻŧ㹢ͤ
  • Member :
    username
    password
  • Not a member :
    name
    email