Loading

เพลง เจ้าหญิง

ฟาเรนไฮต์ (Fahrenheit)

อัพโหลดคลิปเพลงนี้ที่คุณ ร้อง/เล่น ด้วยตัวคุณเอง ได้แล้ววันนี้
ระหว่างการทดสอบระบบหากพบข้อผิดพลาด กรุณาแจ้งที่นี่
Iotro :/D Bm/Em A/(2times)
D Bm Em
เด็กๆ แอบฝัน ว่าฉันได้พบเจ้าชาย
A
ออกมาจากนิทาน
D Bm Em
ใส่หมวก ขี่ม้า ค้นหาเจ้าหญิงองค์หนึ่ง
A
ที่ทนทุกข์มาเนิ่นนาน

D Bm Em
เติบใหญ่ก็รู้ ที่เพ้อฝันมาก่อน
A
ไม่มีอะไรที่จริง
D Bm Em
ไม่มีเจ้าหญิงที่ซ่อนร่างอยู่หลังครัว
A
ไม่มีสโนว์ไวท์

G D
* ไม่มีซินเดอเรล่า กับรถที่เป็นฟักทอง
E
ไม่มีเจ้าชายสักองค์ ที่มาหลงจูบ
G A
ให้ตื่นมาเพื่อเจอเจ้าชายหัวใจงดงาม

D Bm
** ฉันรู้ว่าฉันมันเป็นใคร ฉันรู้ว่าฉันมันคือใคร
G A
ไม่ได้หวังซะจนไกล ปวดท้องก็ทนไป
D
ได้ใช้ชีวิตเป็นอันจริง
F# G
เป็นแค่ผู้หญิงที่แสนธรรมดา
E
ไม่หนีไปกว่าใคร

D Bm
*** ฉันรู้ว่าฉันมันเป็นใคร ฉันรู้ว่าฉันมันคือใคร
G A
อยู่อย่างนี้ก็สุขสบาย สุขทุกข์ไม่เป็นไร
D
ได้พบความรักอันลวงๆ
F# G
ก็แค่เก็บมันจับโยนไว้ใต้เตียง
C D G C D A
บอกลา แล้วปิดไฟ

D Bm Em
กับสิ่งที่ฉันได้พบได้เห็นมันบอก
A
ต้องทำจิตใจให้ชิน
D Bm Em
จะกรวดจะหินหรือได้แก้วก็ว่าไป
A
เมื่อไหร่ก็เมื่อนั้น

( *,**,*** )

Solo:/D/Bm/G/A/D/F#/G/Em A/

( ** )

D Bm
*** ฉันรู้ว่าฉันมันเป็นใคร ฉันรู้ว่าฉันมันคือใคร
G A
อยู่อย่างนี้ก็สุขสบาย สุขทุกข์ไม่เป็นไร
D
ได้พบความรักอันลวงๆ
F# G
ก็แค่เก็บมันจับโยนไว้ใต้เตียง
C D G C D G C Bb7 G
หลับตา เพื่อตื่นมา เริ่มต้นใหม่
ดาวน์โหลด Full Song
กด *424243018086584
กด *424243018086584
ดาวน์โหลด Truetone
กด *424218018086584
กด *424218018086584
กด *424218018086584
ดาวน์โหลด Poly
กด *424214018086584
กด *424214018086584
กด *424214018086584
ดาวน์โหลด Mono
กด *424211018086584
กด *424211018086584
กด *424211018086584
* อัตราค่าบริการดาวน์โหลด Fullsong, Truetone, Poly, Mono : 35 บาท/เพลง
ส่งเพลงนี้ให้เพื่อน
วันที่โพสต์ : 1 เม.ย.2548,11:45น.
จำนวนผู้ชม : 121561 คน / แสดงความคิดเห็น : 25 ครั้ง
โพสต์โดย


จาก: ไอซ์
Guest
เพลงแนะนำ
เพลงฮิต
เลือกแสดงเฉพาะ :

  • เชอร์รี่
    Guest
  • 1 เม.ย.2548,23:25น.
    สุดยอดเลยเพลงนี้ ชอบทุกเพลงเลย ดนตรีหนักแน่นดีค่ะ
  • เบสท์...เดะสุพรรณ
    Guest
  • 2 เม.ย.2548,01:11น.
    ขอ tap กีตาร์ค่ะ ขี้เกียจแกะอ่ะ
  • inDy_Gu!TaR
    Guest
  • 2 เม.ย.2548,10:53น.
    ขอ TABBBBBB หน่อยคับ ทั้ง Intro & SOLO เลยคับบบบบบบบบบบบบบบบบบบ
  • TopGp
    Guest
  • 2 เม.ย.2548,20:36น.
    Intro: D/Bm/Em/A/ 2(time)
    6:-----------------l------------------l---------------l------------------
    5:--5-------------l---9-------------l--7------------l---7-----------
    4:----7---7-------l----9---9-------l---9--9-------l----7--7-------
    3:------7----------l------7----------l----9---------l------6--6-----
    2:------------------l----------5s7--l-----------8--l------------5---
    1:------------5----l------------------l---------7---l-----------------

    sหมายถึงสไลทสายนะคับจาก 5ลูดไป7นะคับ
    ผิดอย่าว่ากานนะเดี้ยวว่างจาแกะSoloมาให้นะคับ


  • เบสท์...เดะสุพรรณ
    Guest
  • 3 เม.ย.2548,17:53น.
    Thankๆๆๆๆๆๆ  หลายๆ


    แล้วจะลองไปเล่นดูนะ
  • TopGp
    Guest
  • 3 เม.ย.2548,18:53น.
    Intro: D/Bm/Em/A/ 2(time)
    6:-----------------l------------------l---------------l------------------
    5:--5-------------l---9-------------l--7------------l---7-----------
    4:----7---7-------l----9---9-------l---9--9-------l----7--7-----7--
    3:------7----------l------7----------l----9---------l------6-----6---
    2:------------------l----------5s7--l-----------8--l-----------5---
    1:------------5----l------------------l---------7---l-----------------
    แก้คับชัวโทษนะคับ

  • Thoon Zanax
    Guest
  • 6 เม.ย.2548,20:08น.
    หุๆ ชอบตรงท่อนโซโล่อ่า มันฟังแล้วคันนิ้วไงพิกล^^ ยังไงถ้าแกะได้ก้อขอหน่อยละกานนะครับ แกะย้ากยาก ขอบคุณก๊าบ
    ((ขอคอร์ดกีต้าร์))
  • ตั้ว
    Guest
  • 7 เม.ย.2548,14:42น.
    ผมว่าอินโทรของคุณ TopGp ไม่ค่อยจาเหมือนอ่าครับ (ไม่ได้ลบหลู่นะ) ผมว่ามันน่าจะเป็นคอร์ด D แล้วเอานิ้วก้อยไปเกี่ยวที่ช่อง 5 อ่า ยังไงลองเล่นดูนะ

    Intro: D/Bm7/Em7/A/ 2(time)
    D Bm7 Em7 A
    6:-----------------l--------------------l---------------------l-----------------l
    5:-----------------l--2----------------l--7-----------------l------------------l
    4:--0-------------l-----4---4---------l----9---9----------l------------------l
    3:-----2---2-----l--------2-----------l------7-------------l------------------l
    2:-------3--------l-------------2h3--l------------10--8--l------------------l
    1:-------------5--l--------------------l----------------------l-----------------l

    หมายเหตุ : ท่อนสุดท้ายผมแกะไม่ออกอะ ช่วยกันหน่อยนะ
  • ไก่
    Guest
  • 16 เม.ย.2548,14:00น.
    1)-----------------5--------l------------------------l----------------5^3--l--------------------------l
    2)--------3------------2---l---------------2^3----l--------3-------------l------------------0^2---l
    3)-----2-----2-------------l---------2-------------l------4----4----------l-------2^0^2----------l
    4)--0-----------------------l-----4-----4----------l---5-------------------l--------------------------l
    5)---------------------------l--2--------------------l-----------------------l---0---------------------l
    6)---------------------------l------------------------l-----------------------l--------------------------l

    แหะๆ
    คอร์ด A ฟังมะค่อยรุเรื่องเรยอ่ะ
  • ไก่
    Guest
  • 16 เม.ย.2548,14:09น.
    Solo ยากมั่กๆ

    1)---------------------12-----12------------12-----12-----------------------------------------------
    2)----------15----15-------------15----15------------15-----15-14-----14-12----12----------
    3)---/14------14--------14---------14--------14---------14---------14---------11-----14-----
    4)-------------------------------------------------------------------------------------------------------
    5)--------------------------------------------------------------------------------------------------------
    6)-------------------------------------------------------------------------------------------------------

    เด๋วอีกท่อนจะตามมาคับ
  • neo
    Guest
  • 16 เม.ย.2548,15:03น.
    SoLO ยากโครตจิงๆๆด้วย
  • ไก่
    Guest
  • 16 เม.ย.2548,20:09น.
    แก้ใหม่ๆ  อย่างนี้เล่นง่ายขึ้น

    1)------------------------------------------------------------------------------------------------------
    2)---------15----15-17-----17-15----15-17----17-15----15-14----14-12----12----------
    3)--/14------14---------14---------14--------14---------14--------14---------11----14-----
    4)------------------------------------------------------------------------------------------------------
    5)------------------------------------------------------------------------------------------------------
    6)------------------------------------------------------------------------------------------------------

    1)---------------------------14-----14-15--14----------------------------------------------------
    2)---15----15-17-----17-----------------------15-----------------------------------------------
    3)-------14---------16---------16-------------------14--12--11--------------------------------
    4)---------------------------------------------------------------------12--11----------------------
    5)------------------------------------------------------------------------------12-------------------
    6)----------------------------------------------------------------------------------------------------

    1)------------------------------------------------------------------------------------------------------
    2)---15----15-17----17-15----15-17-----17-14-----------------------------------------------
    3)-------14--------14---------14---------14---------14-12-11---------------------------------
    4)---------------------------------------------------------------------12-11---------------12-14--
    5)-----------------------------------------------------------------------------13---------14---------
    6)---------------------------------------------------------------------------------14-15-------------

    1)------------------17-15-14---------------------
    2)----------15-17--------------15^17-----------
    3)--12-16-------------------------------14------
    4)---------------------------------------------------
    5)---------------------------------------------------
    6)---------------------------------------------------

    แหะๆ ผมว่ามันน่าจะตรงแร้วนะ 55+
    หัวหมองมันไปได้แค่เนี้ยคับ
    ไคแกะได้ก้อเอามาแบ่งๆกันมั่งน้า
  • น้องจ๋า
    Guest
  • 11 พ.ค.2548,18:45น.
    รบกวนหน่อยนะค่ะ คือต้องการเพลง hot dog ของวง limp bizkit ค่ะ ยังก็ช่วยๆกันหามาลง
    ให้หน่อยนะค่ะขอบคุณมากๆเลยค่ะ
  • แอม
    Guest
  • 20 พ.ค.2548,18:12น.
    โห ชอบมากเพลงนี้สุดยอดมัน  เพราะ  ไพเราะ  คนร้องก็เสียงดี  โครต          
  • peed
    Guest
  • 20 มิ.ย.2548,14:02น.
    จริงๆแล้ว ท่อนโวโล่ไม่ยากอย่างที่คิดกันหลอก ลองเล่นดู มันเล่นซ้ำไปมา
  • jUb" *
    Guest
  • 12 ก.ค.2548,23:29น.
    โซโล่โหด T.T


  • 007
    Guest
  • 23 ก.ย.2548,17:01น.
    ลองเล่นสายเปิดของสายสองดูแล้วจะง่ายขื้น 
  • 555
    Guest
  • 27 ธ.ค.2548,15:48น.
    เจ้าหญิง 
    Artist : ฟาเรนไฮต์ (Farenheit)

    Iotro :/D Bm/Em A/(2times)
    D Bm Em
    เด็กๆ แอบฝัน ว่าฉันได้พบเจ้าชาย
    A
    ออกมาจากนิทาน
    D Bm Em
    ใส่หมวก ขี่ม้า ค้นหาเจ้าหญิงองค์หนึ่ง
    A
    ที่ทนทุกข์มาเนิ่นนาน

    D Bm Em
    เติบใหญ่ก็รู้ ที่เพ้อฝันมาก่อน
    A
    ไม่มีอะไรที่จริง
    D Bm Em
    ไม่มีเจ้าหญิงที่ซ่อนร่างอยู่หลังครัว
    A
    ไม่มีสโนว์ไวท์

    G D
    * ไม่มีซินเดอเรล่า กับรถที่เป็นฟักทอง
    E
    ไม่มีเจ้าชายสักองค์ ที่มาหลงจูบ
    G A
    ให้ตื่นมาเพื่อเจอเจ้าชายหัวใจงดงาม

    D Bm
    ** ฉันรู้ว่าฉันมันเป็นใคร ฉันรู้ว่าฉันมันคือใคร
    G A
    ไม่ได้หวังซะจนไกล ปวดท้องก็ทนไป
    D
    ได้ใช้ชีวิตเป็นอันจริง
    F# G
    เป็นแค่ผู้หญิงที่แสนธรรมดา
    E
    ไม่หนีไปกว่าใคร

    D Bm
    *** ฉันรู้ว่าฉันมันเป็นใคร ฉันรู้ว่าฉันมันคือใคร
    G A
    อยู่อย่างนี้ก็สุขสบาย สุขทุกข์ไม่เป็นไร
    D
    ได้พบความรักอันลวงๆ
    F# G
    ก็แค่เก็บมันจับโยนไว้ใต้เตียง
    C D G C D A
    บอกลา แล้วปิดไฟ

    D Bm Em
    กับสิ่งที่ฉันได้พบได้เห็นมันบอก
    A
    ต้องทำจิตใจให้ชิน
    D Bm Em
    จะกรวดจะหินหรือได้แก้วก็ว่าไป
    A
    เมื่อไหร่ก็เมื่อนั้น

    ( *,**,*** )

    Solo:/D/Bm/G/A/D/F#/G/Em A/

    ( ** )

    D Bm
    *** ฉันรู้ว่าฉันมันเป็นใคร ฉันรู้ว่าฉันมันคือใคร
    G A
    อยู่อย่างนี้ก็สุขสบาย สุขทุกข์ไม่เป็นไร
    D
    ได้พบความรักอันลวงๆ
    F# G
    ก็แค่เก็บมันจับโยนไว้ใต้เตียง
    C D G C D G C Bb7 G
    หลับตา เพื่อตื่นมา เริ่มต้นใหม่

  • tum
    Guest
  • 18 ก.พ.2549,01:26น.
    ขอบคุณค้าบ........
  • theตุ๋ย
    Guest
  • 17 ต.ค.2549,17:53น.
    กลางๆไม่ยากไม่ง่ายตูชอบ^^
  • คสขอแท็ป
    Guest
  • 19 ม.ค.2550,22:10น.
    ขอแท็ป เบสหน่อยคาบ
  • ดา
    Guest
  • 27 ธ.ค.2550,15:06น.
    โชดดีจังค่ะที่มีโอกาสได้ฟัง.....ชอบมากค่ะ
    มีความหมายมาก....ฟังแล้วอยากเริ่มต้นใหม่....
    จะทำวันนี้ให้ดีที่สุดค่ะ....................
  • ปอ
    Guest
  • 2 ม.ค.2551,15:00น.
    คิดเองไม่เปงหรอขอแต่TABคนเก่งต้องคิดเองนะ ((ขอคอร์ดกีต้าร์))
1

ขอเชิญร่วมแสดงความคิดเห็นครับ

คลิกที่รูป เพื่อแทรกรูปลงในข้อความ
  • Member :
    username
    password
  • Not a member :
    name
    email