Loading

เพลง เดือนเพ็ญ

คาราบาว

อัพโหลดคลิปเพลงนี้ที่คุณ ร้อง/เล่น ด้วยตัวคุณเอง ได้แล้ววันนี้
ระหว่างการทดสอบระบบหากพบข้อผิดพลาด กรุณาแจ้งที่นี่
Print

      INTRO     F/Gm/Dm/F/Bb/C7/F/C7/F/Gm/Dm/F/Bb/C7/F/C7/


F Gm Dm

เดือนเพ็ญสวยเย็นเห็นอร่าม

F Bb C7 F C7
นภาแจ่มนวลดูงามเย็นชื่นหนอยามเมื่อลมพัดมา

F Gm Dm
แสงจันทร์นวลชวนใจข้า
F Bb C7 F C7

คิดถึงถิ่นที่จากมาคิดถึงท้องนาบ้านเรือนที่เคยเนาว์

F Gm Dm
เรไรร้องดังฟังว่า

F Bb C7 F C7
เสียงเจ้าที่คร่ำครวญหาลมเอ๋ยช่วยพากระซิบข้างกาย
F Gm Dm

ข้ายังคอยอยู่ไม่หน่าย

F Bb C7 F C7
ไม่เลือนห่างจากเคลื่อนคลายคิดถึงมิวายเมื่อเราจากัน
F Gm Dm

กองไฟสุมควายตามคอก

F Bb C7 F C7
คงยังไม่มอดดับดอกจันทร์เอ๋ยช่วยบอกให้ลมช่วยเป่า

F Gm Dm
สุมไฟให้แรงเข้า

F Bb C7 F C7
พัดไล่ความเยือกเย็นหนาวให้พี่น้องเรานอนหลับอุ่นสบาย

F Gm Dm
ลมเอยช่วยเป็นสื่อให้
F Bb C7 F C7

นำรักจากห้วงดวงใจของข้านี้ไปบอกเข้านั้นนา
F Gm Dm

ให้เมืองไทยรู้ว่า
F Bb C7 F C7

ไม่นานลูกที่จากลาจะไปซบหน้ากับอกแม่เอย.


F/Gm/Dm/F/Bb/C7/F/C7/F/Gm/Dm/F/Bb/C7/F/C7/

http://www.musicatm.com/thai/คอร์ดเพลง-เดือนเพ็ญ-คาราบาว-1360.html
ส่งเพลงนี้ให้เพื่อน
วันที่โพสต์ : 14 ก.พ.2547,22:09น.
จำนวนผู้ชม : 379447 คน / แสดงความคิดเห็น : 87 ครั้ง
โพสต์โดย


จาก: ท็อป
Guest
เพลงแนะนำ
เพลงฮิต
เลือกแสดงเฉพาะ :

  • เยาวเรศ
    Guest
  • 10 ม.ค.2557,13:46น. 111.84.18.110
    ชอบเพลงนี้มากค่ะ อมตะดี
  • ท็อป
    Guest
  • 14 ก.พ.2547,22:16น.
    เพลงนี้จะเล่นอีกคีย์ก็ได้นะครับ   เริ่มต้นด้วยคอร์ด   C .....
    ใครรู้ก็บอกกันหน่อยนะครับ
    ((อัพเดทคอร์ดกีต้าร์))
  • 12223
    Guest
  • 15 ก.พ.2547,20:28น.
    แค่นี่ โถ่เอ้ย....................
  • add
    Guest
  • 12 พ.ค.2547,15:32น.
    อยากได้  Intro  
  • OFF
    Guest
  • 13 พ.ค.2547,14:13น.
    INTRO     F/Gm/Dm/F/Bb/C7/F/C7/F/Gm/Dm/F/Bb/C7/F/C7/
  • นู๋นาค มือไฟ
    Guest
  • 1 มิ.ย.2547,15:35น.
    ไม่ได้ยินเสียงเพลงเรย 
    ((อัพเดทแหล่งทดลองฟัง))
  • TEE
    Guest
  • 4 มิ.ย.2547,16:04น.
    แกะเองเดะ
  • มิติ
    Guest
  • 14 ก.ค.2547,04:35น.
    เดี๋ยวมิติมาลงให้นะครับ ไปนอนละ 
  • ๛หน่วยสวาทพิฆาตเทพ๛
    Guest
  • 3 ส.ค.2547,11:42น.
    คำเตือน : ระวังมัน มองคุณอยู่และมันพร้อมที่จะขยี้คุณด้วยกลงเล็บที่แหลมคมดุจใบมีด
    และมันพร้อมที่จะโฉบคุณทุกเมื่อด้วยปีกอันทรงพลัง ที่ทำให้มันบินเร็วกว่าแสงและเหนือเสียง
    ไม่มีใครหยุดยับยั้งมันได้ ทางรัฐจึงส่งนักล่าหน่วยหนึ่งมาซึ่งมีชื่อว่า ๛หน่วยสวาทพิฆาตเทพ๛
    มากำจัดพวกมัน !
    ((อัพเดทคอร์ดกีต้าร์))
  • ART
    Guest
  • 13 ส.ค.2547,01:47น.
    Intro
    C5----------------------| F C7
    -5-----------8----------------------------------------------------1----3s5---3---3s5---1------
    ------5-----------8------6-8---------------------------------3-----------------------------1---1--
    -----------5----------5---------7---------7--7s5---2--5-----3-------------5---5s7---2---3--
    -7----------------5-------------------7----------3------------------------------------ -----3---2--
    ---------------------------------5------------------------------------------------------ -----3---3--
    ------------------------------------------------------------------------------------------ ----1------
    ((อัพเดทคอร์ดกีต้าร์))
  • เป็ก
    Guest
  • 17 ส.ค.2547,00:47น.
    อิอิ
  • นโปเลียน
    Guest
  • 31 ส.ค.2547,11:33น.
    เยี่ยมเลย......
  • mamy poko
    Guest
  • 4 ก.ย.2547,15:33น.
    ดีมากเลยคับ ผมชอบมากเลย 
  • จิตติพงษ์
    Guest
  • 9 ก.ย.2547,18:55น.
    ดีคับ ขอขอบคุณครับ
  • เกงกิ
    Guest
  • 27 ก.ย.2547,09:55น.
    อยากได้ท่อน solo
  • bank
    Guest
  • 2 ต.ค.2547,18:49น.
    ขอ Tab ชั่ว Intro ครับ
    ((ขอคอร์ดกีต้าร์))
  • ***
    Guest
  • 21 เม.ย.2548,14:03น.
       
    ((ขอคอร์ดกีต้าร์))
  • 1in under หล้า
    Guest
  • 22 เม.ย.2548,22:16น.
    สุดยอด 
  • เพ่บอล
    Guest
  • 19 มิ.ย.2548,16:55น.
    เดือนเพ็ญ 
    Artist : คาราบาว

    INTRO F/Gm/Dm/F/Bb/C7/F/C7/F/Gm/Dm/F/Bb/C7/F/C7/


    F Gm Dm

    เดือนเพ็ญสวยเย็นเห็นอร่าม

    F Bb C7 F C7
    นภาแจ่มนวลดูงามเย็นชื่นหนอยามเมื่อลมพัดมา

    F Gm Dm
    แสงจันทร์นวลชวนใจข้า
    F Bb C7 F C7

    คิดถึงถิ่นที่จากมาคิดถึงท้องนาบ้านเรือนที่เคยเนาว์

    F Gm Dm
    เรไรร้องดังฟังว่า

    F Bb C7 F C7
    เสียงเจ้าที่คร่ำครวญหาลมเอ๋ยช่วยพากระซิบข้างกาย
    F Gm Dm

    ข้ายังคอยอยู่ไม่หน่าย

    F Bb C7 F C7
    ไม่เลือนห่างจากเคลื่อนคลายคิดถึงมิวายเมื่อเราจากัน
    F Gm Dm

    กองไฟสุมควายตามคอก

    F Bb C7 F C7
    คงยังไม่มอดดับดอกจันทร์เอ๋ยช่วยบอกให้ลมช่วยเป่า

    F Gm Dm
    สุมไฟให้แรงเข้า

    F Bb C7 F C7
    พัดไล่ความเยือกเย็นหนาวให้พี่น้องเรานอนหลับอุ่นสบาย

    F Gm Dm
    ลมเอยช่วยเป็นสื่อให้
    F Bb C7 F C7

    นำรักจากห้วงดวงใจของข้านี้ไปบอกเข้านั้นนา
    F Gm Dm

    ให้เมืองไทยรู้ว่า
    F Bb C7 F C7

    ไม่นานลูกที่จากลาจะไปซบหน้ากับอกแม่เอย.


    F/Gm/Dm/F/Bb/C7/F/C7/F/Gm/Dm/F/Bb/C7/F/C7/


  • เด็ดวง Matrix ตัว J
    Guest
  • 1 ก.ค.2548,19:16น.
    ใครมีโน๊ตดนตีรไทยของเพลงเดือนเพ็ญบ้างโปดเขียนลงบนเวปหน่อย
  • b
    Guest
  • 11 ก.ค.2548,10:52น.
    C5----------------------|                                                                                          F   C7 
    -5-----------8----------------------------------------------------1----3s5---3---3s5---1------
    ------5-----------8------6-8---------------------------------3-----------------------------1---1--
    -----------5----------5---------7---------7--7s5---2--5-----3-------------5---5s7---2---3--
    -7----------------5-------------------7----------3------------------------------------ -----3---2--
    ---------------------------------5------------------------------------------------------ -----3---3--
    ------------------------------------------------------------------------------------------ ----1------
    ((ขอคอร์ดกีต้าร์))
  • 123
    Guest
  • 11 ก.ค.2548,20:03น.
     
  • gjch
    Guest
  • 31 ก.ค.2548,12:46น.
       
    ((ขอคอร์ดกีต้าร์))
  • pop
    Guest
  • 31 ก.ค.2548,12:51น.
     : ขอเนื้อพลงของ เอ๋ สันติภาพ ชุดไหม่หน่อย 
    ((ขอคอร์ดกีต้าร์))
  • สาวกคาราบาว
    Guest
  • 13 ก.ย.2548,11:01น.
    ช่วยบอกความหมายของสัญลักษ์ต่างๆมาด้วยจะขอบคุณมากๆครับ  
  • tik
    Guest
  • 16 ก.ย.2548,10:30น.
     สุดยอด
  • ???
    Guest
  • 4 ก.ย.2549,20:20น.
     
  • 1236
    Guest
  • 27 ก.ย.2549,23:45น.
    ขอคีย์ C หน่อยค่ะ

ขอเชิญร่วมแสดงความคิดเห็นครับ

คลิกที่รูป เพื่อแทรกรูปลงในข้อความ
  • Member :
    username
    password
  • Not a member :
    name
    email